Oops, an error
Loading. Please wait.

Dancing On A Saturday Night bass

43 views 1 this week
no commentswrite comment
1 2 3 4 5
2 more votes to show rating
add to favorites
×
Save as Personal and add changes to this tab that will be seen only by you. Learn more ›
×
You can save this tab as Personal to edit and correct it or add notes. All changes will be seen only by you. Learn more »
launch autoscroll
font size
0
reset
guitar tuner
edit
Autoscroll
slow
fast
+/-
esc
set tempo
stop
Author
Dancing On A Saturday Night
Glam rock song from 1973 by Barry Blue. Reached #2 UK charts.
Tab by bass50611. Welcome to my tab, not exact but very close to original
Great Seventies Disco song. Symbol ‘.’ are pause dots

Intro:
G|------------|--------------------------------------------------------|
D|-DRUM START-|--------------------------------------------------------|
A|------------|-5-------5-------5-------5-------7-------7-------7------|
E|------------|----7-5-----7-5-----7-5-----7-5-----9-7-----9-7-----9-7-|

G|---------------------------------|
D|----------------------------5--7-|
A|-7-------5--------5-------5------|
E|----9-7-----7-5------7-5---------|

Verse 1:
G|----------------------------------------------------------------|
D|----------------------------------------------------------------|
A|-5-------5-------5-------5-------5-------5-------5-------5------|
E|----7-5-----7-5-----7-5-----7-5-----7-5-----7-5-----7-5-----7-5-|

G|------------------------------------------------------------------|
D|------------------7-------7---------------------------------------|
A|-7-------7-----------9-7-----9-7---5-------5-------5-------5------|
E|----9-7-----9-7-----------------------7-5-----7-5-----7-5-----7-5-|

Verse 2:
G|----------------------------------------------------------------|
D|----------------------------------------------------------------|
A|-5-------5-------5-------5-------5-------5-------5-------5------|
E|----7-5-----7-5-----7-5-----7-5-----7-5-----7-5-----7-5-----7-5-|

G|------------------------------------------------------------------|
D|------------------7-------7---------------------------------------|
A|-7-------7-----------9-7-----9-7---5-------5-------5-------5------|
E|----9-7-----9-7-----------------------7-5-----7-5-----7-5-----7-5-|

Chorus:
  ‘.’    ‘.’     ‘.’            ‘.’    ‘.’     
G|----------------------------------------------------------------------|
D|--------5--------------7---7----------5------------7---7---7--7--7--7-|
A|-5--------------7--------------5------------7---7---------------------|
E|----------------------------------------------------------------------|

Verse 3:
G|----------------------------------------------------------------|
D|----------------------------------------------------------------|
A|-5-------5-------5-------5-------5-------5-------5-------5------|
E|----7-5-----7-5-----7-5-----7-5-----7-5-----7-5-----7-5-----7-5-|

G|----------------------------------------------------------|
D|------------------7-------7--------------------------5--7-|
A|-7-------7-----------9-7-----9-7---5-------5-------5------|
E|----9-7-----9-7-----------------------7-5-----7-5---------|

Interlude:
G|----------------------------------------------------------------|
D|----------------------------------------------------------------|
A|-5-------5-------5-------5------5--------5-------5-------5------|
E|----7-5-----7-5-----7-5-----7-5-----7-5-----7-5-----7-5-----7-5-|

G|----------------------------------------------------------------|
D|----------------------------------------------------------------|
A|-7-------7-------7-------7-------5-------5-------5-------5------|
E|----9-7-----9-7-----9-7-----9-7-----7-5-----7-5-----7-5-----7-5-|

Chorus:
  ‘.’    ‘.’     ‘.’            ‘.’    ‘.’     
G|----------------------------------------------------------------------|
D|--------5--------------7---7----------5------------7---7---7--7--7--7-|
A|-5--------------7--------------5------------7---7---------------------|
E|----------------------------------------------------------------------|

Verse 3:
G|----------------------------------------------------------------|
D|----------------------------------------------------------------|
A|-5-------5-------5-------5-------5-------5-------5-------5------|
E|----7-5-----7-5-----7-5-----7-5-----7-5-----7-5-----7-5-----7-5-|

G|------------------------------------------------------------------|
D|------------------7-------7---------------------------------------|
A|-7-------7-----------9-7-----9-7---5-------5-------5-------5------|
E|----9-7-----9-7-----------------------7-5-----7-5-----7-5-----7-5-|

Bridge:                ‘.’     ‘.’   ‘.’ ‘.’                   ‘.’
G|--------------------|-------------------------------------------|
D|-VOCALS &DRUMS ONLY-|---------------7---------------------------|
A|-----FIRST HALF-----|-7-------7---------5---------------------7-|
E|--------------------|-------------------------------------------|

Outro:                                               (Repeat To Fade)
G|----------------------------------------------------------------|
D|----------------------------------------------------------------|
A|-7-------7-------7-------7-------7-------7-------7-------7------|
E|----9-7-----9-7-----9-7-----9-7-----9-7-----9-7-----9-7-----9-7-|

Symbol ‘.’ Are Pause Dots

            
            
Suggest correction
Creating personal tab
Creating personal tab
You can edit any tab online and save it as your Personal.

You can edit, replace or remove any tab part or add personal notes – all changes will be seen only by you.

Personal tabs can be accessed anytime from any device, even offline.
Learn more »
Give kudos to tab author, rate the tab!
1 2 3 4 5
comments
print report bad tab
guest
You may want to rate the tab now too:
select rating
Wanna post a correction for this tab? Suggest correction