Oops, an error
Loading. Please wait.

Khai Tab

193 views 27 this week
no commentswrite comment
1 2 3 4 5
3 more votes to show rating
add to favorites
launch autoscroll
font size
0
reset
how to read this tab
guitar tuner
Autoscroll
slow
fast
+/-
esc
set tempo
stop
Help us to improve Ultimate-Guitar.com Take our survey!
×
Author
Difficulty
novice
Beautiful Song Made By Bartika Eam Rai From The Album "Bimbaakash".


[Intro]

Played Over Same Chords As verse

e|-------------9--12--14--12--9----------|
B|--9--10--12--------------------12--10--|
G|---------------------------------------|
D|---------------------------------------|
A|---------------------------------------|
E|---------------------------------------|

e|------------------12--14--12--9-----------|
B|--12--14--12--14------------------12--10--|
G|------------------------------------------|
D|------------------------------------------|
A|------------------------------------------|
E|------------------------------------------|


e|-------------9--12--14--16--17--16--14-|
B|--9--10--12----------------------------|
G|---------------------------------------|
D|---------------------------------------|
A|---------------------------------------|
E|---------------------------------------|


e|--17--14---12--9--12--9--7-------------|
B|---------------------------------------|
G|---------------------------------------|
D|---------------------------------------|
A|---------------------------------------|
E|---------------------------------------|


[Verse 1]

F#m
Bihani Saberei Jurukka Uthera
D
Dugurchau Khai k Lakchya Samatna
F#m
Rahar Ko Katha Ho ,Thotro,Ritto
D
Eka Ek Gumsiyeko
F#m
Sajha Bus ko Euta Kuna Ma
D
Tolaudai Bityo Zindagani
F#m
Ta Timrai Agadi Ooilidai Cha
D
K garyau Aakhir Khusi Ko Lagi


[Pre-Chorus]

E        D
Sapna Ko ghar Timro
E               D
Eka--ha desh Ma thadaethyau
E               D
Purdai Chau Aja Aafnai Sapna Lai
E            Bm
Nirdosh Timi Aathahai Na Sochi

Bm


[Chorus]

A     E        D                    Bm
Jauuu Harauuuu Khusi Ma Tripta timi timilai nai pau
A            E
Hera Na Aafu Lai timi

     E       E      E       E
e|-------------------------------------------|
B|---9-10-12-14--12-14------12-14-12-10-9----|
G|-------------------------------------------|
D|-------------------------------------------|
A|-------------------------------------------|
E|-------------------------------------------|

E          D
Kati Bhayo Khulera Haseko

     E       E      E       E
e|---------------------------------------|
B|---3-5-7-9--7-9--7-9-7-5-3-------------|
G|---------------------------------------|
D|---------------------------------------|
A|---------------------------------------|
E|---------------------------------------|

D           E
Kati Bhayoo Nirdhakka Bacheko

E

F#m - D   [play 4 times]


[Verse 2]

F#m
Khoji Hidyau Maya Sahara Khokro
D
Pasal Haru ma Tara Kahile
F#m
Bujhna Sakenau Aakhir ma Vawana
D
Badlanchan Mausamai Sari
F#m
Chaharchau Galli Samjhana ma
D
Chiharchau Badal Lai Akohoro
F#m
Kina Bujenau Aja Samma
D
Samay tyo Gayo Agadi Bada Na

F#m
Suggest correction
Give kudos to tab author, rate the tab!
1 2 3 4 5
comments
print report bad tab
guest
You may want to rate the tab now too:
select rating
Wanna post a correction for this tab? Suggest correction