Oops, an error
Loading. Please wait.

Aquasun tab

9,112 views 57 this week
4 commentsread comments
1 2 3 4 5
x 14
add to favorites
×
Save as Personal and add changes to this tab that will be seen only by you. Learn more ›
×
You can save this tab as Personal to edit and correct it or add notes. All changes will be seen only by you. Learn more »
launch autoscroll
font size
0
reset
how to read this tab
guitar tuner
edit
Autoscroll
slow
fast
+/-
esc
set tempo
stop
----------------------------------------------------------------------------------------------------
                                       Basement - Aquasun      
----------------------------------------------------------------------------------------------------

Band: Basement
Song: Aquasun
Album: Promise Everything
Track: 4

Tabbed by: AsILayDying504
Email: mdl4208@aol.com
Tuning: Drop C# (C# G# C# F# A# D#)  or  (Db Ab Db Gb Bb Eb)


[Intro]

[0:00 - 0:25]  

D#|---------------------------------------------------------|
A#|---------------------------------------------------------|
F#|------6--6--6-6--6-6--6--6-6-6-6-6--6--6-6--6-6--6--6-6--|
C#|------x--x--x-x--x-x--x--x-x-x-x-x--x--x-x--x-x--x--x-x--|
G#|--7/9-9--9--9-9--9-9--9--9-9-7-7-7--7--7-7--7-7--7--7-7--|
C#|--0---0--0--0-0--0-0--0--0-0-7-7-7--7--7-7--7-7--7--7-7--|

D#|---------------------------------------------------------------------|
A#|---------------------------------------------------------------------|
F#|----------------------------------------4-4-4--4--4-4-4-4------------|
C#|--11-11-11--11--11-11--11-11--11--11-11-x-x-x--x--x-x-x-x-7--7--7-7--|
G#|--9--9--9---9---9--9---9--9---9---9--9--5-5-5--5--5-5-5-5-5--5--5-5--|
C#|--9--9--9---9---9--9---9--9---9---9--9--5-5-5--5--5-5-5-5-5--5--5-5--|

*Repeat entire intro one more time


[Verse]

[0:25 - 1:05]  

D#|--------------------------------------------------------------------|
A#|--10-10-10--10--10-10--10-10--10--10-10-7-7-7--7--7-7--7-7--7--7-7--|
F#|--7--7--7---7---7--7---7--7---7---7--7--6-6-6--6--6-6--6-6--6--6-6--|
C#|--x--x--x---x---x--x---x--x---x---x--x--x-x-x--x--x-x--x-x--x--x-x--|
G#|--9--9--9---9---9--9---9--9---9---9--9--7-7-7--7--7-7--7-7--7--7-7--|
C#|--0--0--0---0---0--0---0--0---0---0--0--7-7-7--7--7-7--7-7--7--7-7--|

D#|---------------------------------------------------------|
A#|---------------------------------------------------------|
F#|--4-4-4--4--4-4--4-4--4--4-4-4-4-4--4--4-4--4-4--4--4-4--|
C#|--x-x-x--x--x-x--x-x--x--x-x-x-x-x--x--x-x--x-x--x--x-x--|
G#|--5-5-5--5--5-5--5-5--5--5-5-5-5-5--5--5-5--5-5--5--5-5--|
C#|--5-5-5--5--5-5--5-5--5--5-5-5-5-5--5--5-5--5-5--5--5-5--|

*Repeat entire verse three more times
**A second guitar playing the same thing comes in for the third and fourth playthrough


[Chorus]

[1:05 - 1:26]  

D#|---------------------------------------------------------|
A#|---------------------------------------------------------|
F#|------6--6--6-6--6-6--6--6-6-6-6-6--6--6-6--6-6--6--6-6--|
C#|------x--x--x-x--x-x--x--x-x-x-x-x--x--x-x--x-x--x--x-x--|
G#|--7/9-9--9--9-9--9-9--9--9-9-7-7-7--7--7-7--7-7--7--7-7--|
C#|--0---0--0--0-0--0-0--0--0-0-7-7-7--7--7-7--7-7--7--7-7--|

D#|---------------------------------------------------------------------|
A#|---------------------------------------------------------------------|
F#|----------------------------------------4-4-4--4--4-4-4-4------------|
C#|--11-11-11--11--11-11--11-11--11--11-11-x-x-x--x--x-x-x-x-7--7--7-7--|
G#|--9--9--9---9---9--9---9--9---9---9--9--5-5-5--5--5-5-5-5-5--5--5-5--|
C#|--9--9--9---9---9--9---9--9---9---9--9--5-5-5--5--5-5-5-5-5--5--5-5--|

*Repeat entire chorus one more time


[Verse]

[1:26 - 1:46]  

D#|--------------------------------------------------------------------|
A#|--10-10-10--10--10-10--10-10--10--10-10-7-7-7--7--7-7--7-7--7--7-7--|
F#|--7--7--7---7---7--7---7--7---7---7--7--6-6-6--6--6-6--6-6--6--6-6--|
C#|--x--x--x---x---x--x---x--x---x---x--x--x-x-x--x--x-x--x-x--x--x-x--|
G#|--9--9--9---9---9--9---9--9---9---9--9--7-7-7--7--7-7--7-7--7--7-7--|
C#|--0--0--0---0---0--0---0--0---0---0--0--7-7-7--7--7-7--7-7--7--7-7--|

D#|---------------------------------------------------------|
A#|---------------------------------------------------------|
F#|--4-4-4--4--4-4--4-4--4--4-4-4-4-4--4--4-4--4-4--4--4-4--|
C#|--x-x-x--x--x-x--x-x--x--x-x-x-x-x--x--x-x--x-x--x--x-x--|
G#|--5-5-5--5--5-5--5-5--5--5-5-5-5-5--5--5-5--5-5--5--5-5--|
C#|--5-5-5--5--5-5--5-5--5--5-5-5-5-5--5--5-5--5-5--5--5-5--|

*Repeat entire verse one more time
**The second guitar plays during both playthroughs


[Chorus]

[1:46 - 2:07]  

D#|---------------------------------------------------------|
A#|---------------------------------------------------------|
F#|------6--6--6-6--6-6--6--6-6-6-6-6--6--6-6--6-6--6--6-6--|
C#|------x--x--x-x--x-x--x--x-x-x-x-x--x--x-x--x-x--x--x-x--|
G#|--7/9-9--9--9-9--9-9--9--9-9-7-7-7--7--7-7--7-7--7--7-7--|
C#|--0---0--0--0-0--0-0--0--0-0-7-7-7--7--7-7--7-7--7--7-7--|

D#|---------------------------------------------------------------------|
A#|---------------------------------------------------------------------|
F#|----------------------------------------4-4-4--4--4-4-4-4------------|
C#|--11-11-11--11--11-11--11-11--11--11-11-x-x-x--x--x-x-x-x-7--7--7-7--|
G#|--9--9--9---9---9--9---9--9---9---9--9--5-5-5--5--5-5-5-5-5--5--5-5--|
C#|--9--9--9---9---9--9---9--9---9---9--9--5-5-5--5--5-5-5-5-5--5--5-5--|

*Repeat entire chorus one more time


[Bridge]

[2:07 - 2:27]  

  |  Guitar 1
D#|------------------------------------------------------|
A#|---------10----------10----------10----------10-------|
F#|-------------11----------11----------11---------------|  x 4
C#|------------------------------------------------------|
G#|--7/9--------------------------------------------7-7--|
C#|--0---0-----------0-----------0-----------0------0-0--|
  |
  |  Guitar 2
D#|--------------------------------------------------------|
A#|--------------------------------------------------------|
F#|--------------------------------------------------------|  x 4
C#|--9/11----11~br~------11~br~------11~br~--11--11\9-9-9--|
G#|--7/9-----9~~br~------9~~br~------9~~br~--9---9-\7-7-7--|
C#|--0----0-----------0-----------0----------0---0----0-0--|


[Break]

[2:27 - 2:48]  

D#|---------------------------------------------------------|
A#|---------------------------------------------------------|
F#|--7--7--7--7-7-7-7--7-7--7-7-----------------------------|
C#|--7--7--7--7-7-7-7--7-7--7-7-8--8--8--8-8-8-8--8-8--8-8--|
G#|--5--5--5--5-5-5-5--5-5--5-5-7--7--7--7-7-7-7--7-7--7-7--|
C#|-----------------------------8--8--8--8-8-8-8--8-8--8-8--|

D#|--------------------------------------------------------------------|
A#|--------------------------------------------------------------------|
F#|--------------------------------------------------------------------|
C#|--11--11--11--11-11-11-11--11-11--11-11-8--8--8--8-8-8-8--8-8--8-8--|
G#|--9---9---9---9--9--9--9---9--9---9--9--7--7--7--7-7-7-7--7-7--7-7--|
C#|--9---9---9---9--9--9--9---9--9---9--9--8--8--8--8-8-8-8--8-8--8-8--|

*Repeat entire break one more time


[Chorus]

[2:48 - 3:08]  

D#|---------------------------------------------------------|
A#|---------------------------------------------------------|
F#|------6--6--6-6--6-6--6--6-6-6-6-6--6--6-6--6-6--6--6-6--|
C#|------x--x--x-x--x-x--x--x-x-x-x-x--x--x-x--x-x--x--x-x--|
G#|--7/9-9--9--9-9--9-9--9--9-9-7-7-7--7--7-7--7-7--7--7-7--|
C#|--0---0--0--0-0--0-0--0--0-0-7-7-7--7--7-7--7-7--7--7-7--|

D#|---------------------------------------------------------------------|
A#|---------------------------------------------------------------------|
F#|----------------------------------------4-4-4--4--4-4-4-4------------|
C#|--11-11-11--11--11-11--11-11--11--11-11-x-x-x--x--x-x-x-x-7--7--7-7--|
G#|--9--9--9---9---9--9---9--9---9---9--9--5-5-5--5--5-5-5-5-5--5--5-5--|
C#|--9--9--9---9---9--9---9--9---9---9--9--5-5-5--5--5-5-5-5-5--5--5-5--|

*Repeat entire chorus one more time


[Outro]

[3:08 - 3:44]  

  |  Guitar 1
D#|------------------------------------------------------|
A#|---------10----------10----------10----------10-------|
F#|-------------11----------11----------11---------------|  x 3
C#|------------------------------------------------------|
G#|--7/9--------------------------------------------7-7--|
C#|--0---0-----------0-----------0-----------0------0-0--|
  |
  |  Guitar 2
D#|------------------------------------------------------|
A#|------------------------------------------------------|
F#|------------------------------------------------------|  x 3
C#|-------------11~--------------------------------------|
G#|--7/9-----9~------------------------------9--9\7-7-7--|
C#|--0----0----------------------------------0--0---0-0--|


  |  Guitar 1
D#|--------------------------------------------------------|
A#|---------10----------10----------10----------10---------|
F#|-------------11----------11----------11----------11-----|
C#|--------------------------------------------------------|
G#|--7/9-----------------------------------------------5~--|
C#|--0---0-----------0-----------0-----------0---------0~--|
  |
  |  Guitar 2
D#|--------------------------------------------------------|
A#|--------------------------------------------------------|
F#|--------------------------------------------------------|
C#|-------------11~----------------------------------------|
G#|--7/9-----9~----------------------------------------5~--|
C#|--0----0--------------------------------------------0~--|

 

****************************

|  /    slide up
|  x    mute string
|  \    slide down
|  ~    note sustained
|  br   bend string, then release bend  (*In this song it's a very quick, slight bend & release*)

**************************** 
Suggest correction
Creating personal tab
Creating personal tab
You can edit any tab online and save it as your Personal.

You can edit, replace or remove any tab part or add personal notes – all changes will be seen only by you.

Personal tabs can be accessed anytime from any device, even offline.
Learn more »
comments
print report bad tab
4 comments total. Showing first comments.
0 reply
bradrizzardin1 10 Oct 01, 2016 06:38 PM

do you have the intro?

+2 reply
chollands16 91 Oct 27, 2016 02:25 AM

Intro is 4th Fret natural harmonic i believe

D#|-------------------------------|
A#|-------------------------------|
F#|--------------4*---------------|
C#|-----------------4*----4*------|
G#|--------4*----------4*---------|
C#|--4*-4*----4*------------------|

guest
You may want to rate the tab now too:
select rating
Wanna post a correction for this tab? Suggest correction