Oops, an error
Loading. Please wait.

Cloud Tab

25 views 6 this week
no commentswrite comment
1 2 3 4 5
3 more votes to show rating
add to favorites
launch autoscroll
font size
0
reset
how to read this tab
guitar tuner
Autoscroll
slow
fast
+/-
esc
set tempo
stop
Help us to improve Ultimate-Guitar.com Take our survey!
×
Author
Difficulty
Tuning
novice
D# G# C# F# A# D#
-----------------------------------------------------------------
CLOUD - BASEMENT
-----------------------------------------------------------------
Tabbed by:Justin Keys
Email:jmkeys1@gmail.com

Tuning: Half step (Not really half step - The bonus song is half step, but tune the strings half way 
between EbAbDbGbBbeb and EADGBe - Nice lil trick they did) 

INTRO:
eb|------------------------|--------------------------------------|
Bb|------------------------|--------------------------------------|
Gb|----11------11------11--|--------9-------9------9--------------|
Db|------------------------|--------------------------------------|
Ab|------------------------|--------------------------------------|
Eb|-10-----10-------10-----|--7---------7--------7----------------|
                                                                   >This is the intro play this twice.
eb|---------------------------------------------------------------|(Listen to the song and pick these notes 
Bb|---------------------------------------------------------------| accordingly)
Gb|------7---------7---------7------0--2--4--2--------------------|
Db|---------------------------------------------------------------|
Ab|---------------------------------------------------------------|
Eb|-5--------5---------5------------------------------------------|

VERSE:
eb|---------------------------------------------------------------|
Bb|---------------------------------------------------------------|
Gb|-11---9---7------0--2--4--2------------------------------------|  
Db|---------------------------------------------------------------| 
Ab|---------------------------------------------------------------|
Eb|-10---7---5----------------------------------------------------|

or                                                                 >This is the main chunk of the song
                                                                    after the intro. Listen to the song for
eb|---------------------------------------------------------------| the strumming pattern.
Bb|---------------------------------------------------------------|
Gb|-11---9---7---4------------------------------------------------|
Db|---------------------------------------------------------------|
Ab|---------------------------------------------------------------|
Eb|-10---7---5---3------------------------------------------------|

eb|---------------------------------------------------------------|
Bb|---------------------------------------------------------------|
Gb|-11------------------------------------------------------------|>End on this. You can pick or strum this
Db|---------------------------------------------------------------|  - do what ya want.
Ab|---------------------------------------------------------------|
Eb|-10------------------------------------------------------------|

*Basically you play the intro then the main, BUT at the very end of the song
 you play the intro again.* 

| /  slide up
| \  slide down
| h  hammer-on
| p  pull-off
| ~  vibrato
| +  harmonic
| x  Mute note
Suggest correction
Give kudos to tab author, rate the tab!
1 2 3 4 5
comments
print report bad tab
guest
You may want to rate the tab now too:
select rating
Wanna post a correction for this tab? Suggest correction