Oops, an error
Loading. Please wait.

Covet Tab

version 1
version 1

Whole song

Interactive

32,325 views 129 this week
no commentswrite comment
1 2 3 4 5
excellent!
x 13
add to favorites
launch autoscroll
font size
0
reset
how to read this tab
guitar tuner
Autoscroll
slow
fast
+/-
esc
set tempo
stop
Help us to improve Ultimate-Guitar.com Take our survey!
×
Author
Tuning
C# G# C# F# A# D#
Basement - Covet
Tabbed by ear by Ben Jenkins @ benrhysjenkins@gmail.com
Structure: Intro, Full Into, Verse, Bridge, Chorus, Bridge, Chorus.
Tuning: Drop C#
C#  G#  C#  F#  A#  D#    use howtotuneaguitar.org and select Drop C#


[Intro] (Get timing correct on each note, it's usually about 5 strums per note)

D#|-------------------------------------------------------------|
A#|-------------------------------------------------------------|
F#|-------------------------------------------------------------|
C#|---3---0-0-0-0----7---12----3---0-0-0-0----7-(once)----------|
G#|---3---7-7-8-7----7---10----3---7-7-8-7----7-----------------|
C#|---3---0-0-0-0----7---10----3---0-0-0-0----7-----------------|

      (Full Band Intro)
D#|---------------------------------------------------------|
A#|---------------------------------------------------------|
F#|---------------------------------------------------------|
C#|---3---0-0-0-0----7---12----3---0-0-0-0----7---12--------| x2
G#|---3---7-7-8-7----7---10----3---7-7-8-7----7---10--------|
C#|---3---0-0-0-0----7---10----3---0-0-0-0----7---10--------|


[Verse] (pause then lead guitar) (Lead guitar is slightly palm muted)
                  ("outside…")
D#|-------------------------------------------------------------|
A#|-------------------------------------------------------------|
F#|-------------------------------------------------------------|
C#|---(8)x2---(7)---(5)-----------------------------------------| x2
G#|-------------------------------------------------------------|
C#|-------------------------------------------------------------|


[Bridge] @ 1:10 & 2:19

D#|-------------------------------------------------------------|
A#|-------------------------------------------------------------|
F#|-------------------------------------------------------------|
C#|---10---(repeated, figure strum pattern)---------------------|
G#|---8---------------------------------------------------------|
C#|---8---------------------------------------------------------|


[Chorus] Guitar 1 (Same as intro)

D#|---------------------------------------------------------|
A#|---------------------------------------------------------|
F#|---------------------------------------------------------|
C#|---3---0-0-0-0----7---12----3---0-0-0-0----7---12--------| x2
G#|---3---7-7-8-7----7---10----3---7-7-8-7----7---10--------|
C#|---3---0-0-0-0----7---10----3---0-0-0-0----7---10--------|


[Chorus] Guitar 2
                                  @ 1:37
D#|-------------------------------------------------------------|
A#|-------------------------------------------------------------|
F#|------9----9----9--10p9------------5---5/4---4-5p4-----------|
C#|---10---10---10---------10-------7---7-----5-------5---------|
G#|-------------------------------------------------------------|
C#|-------------------------------------------------------------|

D#|-------------------------------------------------------------|
A#|--------------------------------------------------------8----|
F#|------9----9----9--10p9------------5---5/4---4-5p4------9----|
C#|---10---10---10---------10-------7---7-----5-------5----10---|
G#|-------------------------------------------------------------|
C#|-------------------------------------------------------------|


[Bridge] @ 1:10 & 2:19

D#|-------------------------------------------------------------|
A#|-------------------------------------------------------------|
F#|-------------------------------------------------------------|
C#|---10---(repeated, figure strum pattern)---------------------|
G#|---8---------------------------------------------------------|
C#|---8---------------------------------------------------------|


[Chorus] Guitar 2
                                  @ 1:37
D#|-------------------------------------------------------------|
A#|-------------------------------------------------------------|
F#|------9----9----9--10p9------------5---5/4---4-5p4-----------|
C#|---10---10---10---------10-------7---7-----5-------5---------|
G#|-------------------------------------------------------------|
C#|-------------------------------------------------------------|

D#|-------------------------------------------------------------|
A#|--------------------------------------------------------8----|
F#|------9----9----9--10p9------------5---5/4---4-5p4------9----|
C#|---10---10---10---------10-------7---7-----5-------5----10---|
G#|-------------------------------------------------------------|
C#|-------------------------------------------------------------|



************************************

| (n)  Ghost note
| p    Pull-off
| /    Slide up

************************************
Suggest correction
comments
print report bad tab
guest
You may want to rate the tab now too:
select rating
Wanna post a correction for this tab? Suggest correction