Oops, an error
Loading. Please wait.

Covet bass

version 2
version 2

Whole song

Interactive

1,162 views 21 this week
no commentswrite comment
1 2 3 4 5
x 5
add to favorites
×
Save as Personal and add changes to this tab that will be seen only by you. Learn more ›
×
You can save this tab as Personal to edit and correct it or add notes. All changes will be seen only by you. Learn more »
launch autoscroll
font size
0
reset
guitar tuner
edit
Autoscroll
slow
fast
+/-
esc
set tempo
stop
-------------------------------------------------------------------------------
                             COVET - Basement
-------------------------------------------------------------------------------
Tabbed by: Matt Voce
E-mail: matt.voce@gmail.com

Tuning: Drop C# (C#  G#  C#  F#)

This is my first tab, tabbed by ear. Any updates let me know and I'll change 
them

Intro & Verse: 

No bass until drums kick in 

F#|---------------------------------------------------------------------------|
C#|---------------------------------------------------------------------------|
G#|------7h8-7-7h8-7-----3-3--3--3-------7h8-7-7h8-7-----3-3--3--3------------|
C#|-3-3--------------7-7------------3-3--------------7-7----------------------|

Just repeat this until the pre-chorus

Pre-chorus: 

Just a whole lot of 8's. Match to the beat. 
F#|---------------------------------------------------------------------------|
C#|---------------------------------------------------------------------------|
G#|---------------------------------------------------------------------------|
C#|---8-8-88-8-8-88-8-8-88-8-8-88-8-8-88-8-8-88-8-----------------------------|

Chorus:

Back to the main riff again

F#|---------------------------------------------------------------------------|
C#|---------------------------------------------------------------------------|
G#|------7h8-7-7h8-7-----3-3--3--3-------7h8-7-7h8-7-----3-3--3--3------------|
C#|-3-3--------------7-7------------3-3--------------7-7----------------------|

Bass breakdown:

F#|---------------------------------------------------------------------------|
C#|---------------------------------------------------------------------------|
G#|-----------------7-7-7-7-7-7-7-7-----------------3-3-3-3-3-3-3-3-----------|
C#|-3-3-3-3-3-3-3-3-----------------7-7-7-7-7-7-7-7---------------------------|

This just repeats until you play the pre-chorus again

F#|---------------------------------------------------------------------------|
C#|---------------------------------------------------------------------------|
G#|---------------------------------------------------------------------------|
C#|---8-8-88-8-8-88-8-8-88-8-8-88-8-8-88-8-8-88-8-----------------------------|

And the just goes back into the chorus but hold the last note

F#|---------------------------------------------------------------------------|
C#|---------------------------------------------------------------------------|
G#|------7h8-7-7h8-7-----3-3--3--3-------7h8-7-7h8-7-----3-3--3--3------------|
C#|-3-3--------------7-7------------3-3--------------7-7------------7~~~~~----|

Repeat this until the end




| /  slide up
| \  slide down
| h  hammer-on
| p  pull-off
| ~  vibrato
| +  harmonic
| x  Mute note
===============================================================================

            
            
Suggest correction
Creating personal tab
Creating personal tab
You can edit any tab online and save it as your Personal.

You can edit, replace or remove any tab part or add personal notes – all changes will be seen only by you.

Personal tabs can be accessed anytime from any device, even offline.
Learn more »
comments
print report bad tab
guest
You may want to rate the tab now too:
select rating
Wanna post a correction for this tab? Suggest correction