Oops, an error
Loading. Please wait.

Grayscale Tab

2,300 views 6 this week
no commentswrite comment
1 2 3 4 5
x 3
add to favorites
launch autoscroll
font size
0
reset
how to read this tab
guitar tuner
Autoscroll
slow
fast
+/-
esc
set tempo
stop
Help us to improve Ultimate-Guitar.com Take our survey!
×
-----------------------------------------------------------------------------
                             GRAYSCALE - Basement
-----------------------------------------------------------------------------

Intro:
e|-------------|
B|-------------|
G|-------------|
D|-2--2--2--4--|
A|-2--2--2--5--|
E|-0--0--0--2--|

e|----------------------------------|
B|----------------------------------|
G|---5-5---5-5-5-5------------------|x8
D|-5-5-5---5-5-5-5---2-2---5-5-5-5--|
A|-3-3-3---3-3-3-3-2-2-2---5-5-5-5--|
E|-----------------0-0-0---3-3-3-3--|
 | pm              .                |
 |                                  |
e|---------------12--10-------------|-----|
B|-12^-----12^------------12-12^----|-----|
G|----------------------------------|-12~-|x4
D|----------------------------------|-----|
A|----------------------------------|-----|
E|----------------------------------|-----|


Verse:
e|------------------------------------------------------------------|
B|------------------------------------------------------------------|
G|------------------------------------------------------------------|x2
D|-5-5-5-5-5-5-5-5-5-5-5-5-5-5-5-5----------------------------------|
A|-3-3-3-3-3-3-3-3-3-3-3-3-3-3-3-3-2-2-2-2-2-2-2-2-5-5-5-5-5-5-5-5--|
E|---------------------------------0-0-0-0-0-0-0-0-3-3-3-3-3-3-3-3--|
 | pm. . . . . . . . . . . . . . . . . . . . . . . . . . . . . . .  |
 |                                                                  |
e|------------------------------------------------------------------|
B|------------------------------------------------------------------|
G|-12---------------------------------------------------------------|x2
D|---------------------------------12--------------9----10---12-----|
A|------------------------------------------------------------------|
E|------------------------------------------------------------------|


e|------------------------------------------------------------------|
B|------------------------------------------------------------------|
G|------------------------------------------------------------------|x2
D|-5-5-5-5-5-5-5-5-5-5-5-5-5-5-5-5----------------------------------|
A|-3-3-3-3-3-3-3-3-3-3-3-3-3-3-3-3-2-2-2-2-2-2-2-2-5-5-5-5-5-5-5-5--|
E|---------------------------------0-0-0-0-0-0-0-0-3-3-3-3-3-3-3-3--|
 | pm. . . . . . . . . . . . . . . . . . . . . . . . . . . . . . .  |
 |                                                                  |
e|------------------------------------------------------------------|
B|------------------------------------------------------------------|
G|-12--12--12--12--12--12--12--12--11--11--11--11-------------------|x2
D|---14--14--14--14--14--14--14--14--12--12--12--12-9-9-9-10101012--|
A|------------------------------------------------------------------|
E|------------------------------------------------------------------|


Chorus:
e|-----------------------------------------------|
B|-----------------------------------------------|
G|-5----5--5-5--5-5------------------------------|
D|-5----5--5-5--5-5----2----2--2-2--5-5---5--5---|
A|-3----3--3-3--3-3----2----2--2-2--5-5---5--5---|
E|---------------------0----0--0-0--3-3---3--3---|


Bridge to Outro:
e|---0-----------0-----------0-----------0-----------|
B|-----3-----------3-----------3-----------3---------|
G|-------4---4-------4---4-------4---4-------4---4---|
D|---------------------------------------------------|
A|-3-------3---3-------3---0-------0---0-------0-----|
E|---------------------------------------------------|
 |                                                   |
e|---12--14------12--14------12--14------12--14------|
B|-----------12----------12----------12----------12--|
G|-12--12--12--12--12--12--12--12--12--12--12--12----|
D|---------------------------------------------------|
A|---------------------------------------------------|
E|---------------------------------------------------|
Suggest correction
Give kudos to tab author, rate the tab!
1 2 3 4 5
comments
print report bad tab
guest
You may want to rate the tab now too:
select rating
Wanna post a correction for this tab? Suggest correction