Oops, an error
Loading. Please wait.

Hanging Around bass

670 views 1 this week
2 commentsread comments
1 2 3 4 5
2 more votes to show rating
add to favorites
×
Save as Personal and add changes to this tab that will be seen only by you. Learn more ›
×
You can save this tab as Personal to edit and correct it or add notes. All changes will be seen only by you. Learn more »
launch autoscroll
font size
0
reset
guitar tuner
edit
Autoscroll
slow
fast
+/-
esc
set tempo
stop
Author
Difficulty
-------------------------------------------------------------------------------
                             HANGING AROUND - Basement
-------------------------------------------------------------------------------
Tabbed by: cesare_moon
E-mail: 

Artist: Basement
Album: Promise Everything
Year: 2016

Tuning: EADG

Intro Riff - 00.06 - 00.31

G|--------------------------------------------------------------------------------------------------------|
D|-------------------------8------------------------------------------------------------------------------|
A|-2/8--8--8-8-6--6-6--6/9---9----------------------------------------------------------------------------|
E|-----------------------------9--9--9-11-9-6--6--6-8-6-5--5--5-7-5-2--2-2--2-4-3-0-1--1--1-1--1-1-1-1-1--|x2

Rest for first part of Verse (come in at) - 00.44 - 01.03

G|--------------------------------------------------------------------------------------------------------|
D|-------------------------8------------------------------------------------------------------------------|
A|-2/8--8--8-8-6--6-6--6/9---9----------------------------------------------------------------------------|
E|-----------------------------9--9--9-11-9-6--6--6-8-6-5--5--5-7-5-2--2-2--2-4-3-0-1--1--1-1--1-1-1-1-1--|

G|---------------------------------------------------------------------------|
D|---------------------------------------------------------------------------|
A|---------------------------------------------------------------------------|
E|-5--5--5-7-5-2--2-2--2-4-3-0-1--1--1-1--1-1-1-1-1--------------------------| 

Chorus - 01.03 - 01.29

G|--------------------------------------------------------------------------------------------------------|
D|--------------------------------------------------------------------------------------------------------|
A|---------------------------7-7--7-7--7-7-7-7-7--7-7-0-0--0-0--0-0-0--0-0--0-0---------------------------|
E|-8-8--8-8-8--8-8--8-8--8-8----------------------------------------------------1--1--1-1--1--1-1--1-1-1--|x2

Intro Riff - 01.29 - 01.42

G|--------------------------------------------------------------------------------------------------------|
D|-------------------------8------------------------------------------------------------------------------|
A|-2/8--8--8-8-6--6-6--6/9---9----------------------------------------------------------------------------|
E|-----------------------------9--9--9-11-9-6--6--6-8-6-5--5--5-7-5-2--2-2--2-4-3-0-1--1--1-1--1-1-1-1-1--|

Verse - 01.42 - 02.14 

G|--------------------------------------------------------------------------------------------------------|
D|-------------------------8------------------------------------------------------------------------------|
A|-2/8--8--8-8-6--6-6--6/9---9----------------------------------------------------------------------------|
E|-----------------------------9--9--9-11-9-6--6--6-8-6-5--5--5-7-5-2--2-2--2-4-3-0-1--1--1-1--1-1-1-1-1--|x2 

G|---------------------------------------------------------------------------|
D|---------------------------------------------------------------------------|
A|---------------------------------------------------------------------------|
E|--5~-----------------2~--------------1-1-1-1-1-1-1-1-----------------------| 

Chorus - 02.14 - 02.40

G|--------------------------------------------------------------------------------------------------------|
D|--------------------------------------------------------------------------------------------------------|
A|---------------------------7-7--7-7--7-7-7-7-7--7-7-0-0--0-0--0-0-0--0-0--0-0---------------------------|
E|-8-8--8-8-8--8-8--8-8--8-8----------------------------------------------------1--1--1-1--1--1-1--1-1-1--|x2

Outro - 02.40 - End. 

G|----------------------------------------------------------|
D|----------------------------------------------------------|
A|----------------------------------------------------------|
E|-5--5--5-5--2--2-2--2-2--2-1--1--1-1-1--1-1--1-1--1-------| x2

Thank you :)

| /  slide up
| \  slide down
| h  hammer-on
| p  pull-off
| ~  vibrato
| +  harmonic
| x  Mute note
===============================================================================

            
            
Suggest correction
Creating personal tab
Creating personal tab
You can edit any tab online and save it as your Personal.

You can edit, replace or remove any tab part or add personal notes – all changes will be seen only by you.

Personal tabs can be accessed anytime from any device, even offline.
Learn more »
Give kudos to tab author, rate the tab!
1 2 3 4 5
comments
print report bad tab
2 comments total.
-2 reply
eltanio 36 Mar 04, 2016 09:38 AM

The tab is just completely wrong and doesnt match the actual bass sorry mert its shabite tbf, try learning how to tab brother

guest
You may want to rate the tab now too:
select rating
Wanna post a correction for this tab? Suggest correction