Oops, an error
Loading. Please wait.

Oversized tab

version 1
version 1

Whole song

Interactive

Video

6,655 views 24 this week
2 commentsread comments
1 2 3 4 5
x 6
add to favorites
×
Save as Personal and add changes to this tab that will be seen only by you. Learn more ›
×
You can save this tab as Personal to edit and correct it or add notes. All changes will be seen only by you. Learn more »
launch autoscroll
font size
0
reset
how to read this tab
guitar tuner
edit
Autoscroll
slow
fast
+/-
esc
set tempo
stop
Artist: Basement                             
Song: Oversized
Tabbed by: Justin Keys (Tabbed by ear)
E-mail: jmkeys1@gmail.com

Tuning: half step down 

[Intro]
(Listen to the song to understand rhythm)
e|------------------|
B|------------------|
G|--4-4--4-4-/-9-9--|
D|------------------| x2 
A|--2-2--2-2-/-7-7--|
E|-------3-3-/-8-8--|

 [Verse] 
e|------------------|
B|------------------|
G|--4-4--4-4-/-9-9--|
D|------------------| (x4 the first time and x5 the second time)
A|--2-2--2-2-/-7-7--|
E|-------3-3-/-8-8--|

[Chorus]
(Listen carefully to the song)(Let the last chord ring out a bit at the end of the chorus) 
e|----------------------------------3----------|
B|------3-----/--------8-----------------------|
G|--------0------------------------------------|
D|---------------------------------------------| (x6 the first time and x8 the second time)
A|----2-------/------7--------------2----------|
E|--3---------/----8----------------3----------|

[Outro]
(Let this chord ring out)
e|--3----------------|
B|-------------------|
G|-------------------|
D|-------------------|
A|--2----------------|
E|--3----------------|


************************************

| /  Slide up

************************************
Suggest correction
Creating personal tab
Creating personal tab
You can edit any tab online and save it as your Personal.

You can edit, replace or remove any tab part or add personal notes – all changes will be seen only by you.

Personal tabs can be accessed anytime from any device, even offline.
Learn more »
comments
print report bad tab
2 comments total.
+3 reply
VintageBassline 1,739 Mar 09, 2016 05:11 AM

I think the chorus goes:
eb|-----------------------|
Bb|-----------------------|
Gb|------4--------9-------|
Db|----5---5--------10----|
Ab|-----------------------|
Eb|--3--------/-8-------\-|

0 reply
PBass19 10 Apr 08, 2016 11:42 AM

the chorus is incredibly wrong and the intro/verse are both missing the 5th and the first two parts of it are backwards

guest
You may want to rate the tab now too:
select rating
Wanna post a correction for this tab? Suggest correction