Oops, an error
Loading. Please wait.

Promise Everything bass

4,351 views 33 this week
1 commentread comment
1 2 3 4 5
x 4
add to favorites
×
Save as Personal and add changes to this tab that will be seen only by you. Learn more ›
×
You can save this tab as Personal to edit and correct it or add notes. All changes will be seen only by you. Learn more »
launch autoscroll
font size
0
reset
guitar tuner
edit
Autoscroll
slow
fast
+/-
esc
set tempo
stop
So the getting the tab for this was pretty easy, and the bass part isn't too tough, just a little fast and
some of the timing is weird.

[0:00 - 0:06]
(only guitar)


[0:06 - 0:24]

F#|----------------|---------------||
C#|----------------|---------------||
G#|-7-7-7-8-8-8-8--|---------------||
C#|---------------7|-7-7-7-7-7-7-7-||(x6)


[0:24 - 0:37]

F#|----------------|---------------|-----------------|-----------------||
C#|----------------|---------------|-----------------|-----------------||
G#|----------------|---------------|-----------------|-----------------||
C#|-3-3-3-3-3-3-3-3|-7-7-7-7-7-7-7-|-3-3-3-3-3-3-3-3-|-7-7-7-7-7-7-7-7-||

F#|-----------------|-----------------|---------------|-----------------||
C#|-----------------|-----------------|---------------|-----------------||
G#|-----------------|-----------------|---------------|-----------------||
C#|-3-3-3-3-3-3-3-3-|-7-7-7-7-7-7-7-7-|-3-3-3-3-3-3-3-|-3-3-3-3-3-3-3-3-||


[0:37 - 0:50]

F#|----------------|----------------||
C#|----------------|----------------||
G#|---------------0|-0-0-0-0-0-0-0-0||
C#|-2-2-2-3-3-3-3--|----------------||(x4)


[0:50 - 1:02]

F#|-----------------|-----------------|-----------------|-----------------||
C#|-----------------|-----------------|-----------------|-----------------||
G#|-----------------|-3-3-3-3-3-3-3-3-|-----------------|-----------------||
C#|-3-3-3-3-3-3-3-3-|-----------------|-7-7-7-7-7-7-7-7-|-7-7-7-7-7-7-7-7-||

F#|-----------------|-----------------|-----------------|-----------------||
C#|-----------------|-----------------|-----------------|-----------------||
G#|-----------------|-3-3-3-3-3-3-3-3-|-----------------|-----------------||
C#|-3-3-3-3-3-3-3-3-|-----------------|-7-7-7-7-7-7-7-7-|-7-7-7-7-7-7-7-7-||


[1:02 - 1:18]

F#|----------------|---------------|-----------------|-----------------||
C#|----------------|---------------|-----------------|-----------------||
G#|----------------|---------------|-----------------|-----------------||
C#|-3-3-3-3-3-3-3-3|-7-7-7-7-7-7-7-|-3-3-3-3-3-3-3-3-|-7-7-7-7-7-7-7-7-||

F#|----------------|---------------|-----------------|-----------------|-----------------|------------------|
C#|----------------|---------------|-----------------|-----------------|-----------------|------------------|
G#|----------------|---------------|-----------------|-----------------|-----------------|------------------|
C#|-3-3-3-3-3-3-3-3|-7-7-7-7-7-7-7-|-3-3-3-3-3-3-3-3-|-3-3-3-3-3-3-3-3-|-3-3-3-3-3-3-3-3-|-3-3-3-3-3-3-3-3--|


[Solo]
[1:18 - 2:08]
                  
F#|------------------------------------------------------------------|
C#|------------------------------------------------------------------|
G#|-8-8-8-8-8-8-7-7-5-5-5-5-5-7-5-(0)--------------------------0-3-5-|
C#|-------------------------------(7)-7-7-7-5-5-5-7-7-7-5-5-5-5------|(x8)
(7 or 0 are interchangable)


[2:08 - End]

F#|-----------------------------------------------------------||
C#|-----------------------------------------------------------||
G#|-8-8-8-8-8-8--5-5-5-5-5-7----------------------------0-3-5-||
C#|---------------------------7-7-7-5-5-5-7-7-7-5-5-5-5-------||

F#|------------------------------------------------------------------|------------------------||
C#|------------------------------------------------------------------|------------------------||
G#|-8-8-8-8-8-8-7-7-5-5-5-5-5-7-5(0)---------------------------0-3-5-|-8-8-8-8-8-8--5-5-5-5-5-||
C#|------------------------------(7)-7-7-7-5-5-5-7-7-7-5-5-5-5-------|------------------------||



************************************

| (n)  Ghost note   

************************************

            
            
Suggest correction
Creating personal tab
Creating personal tab
You can edit any tab online and save it as your Personal.

You can edit, replace or remove any tab part or add personal notes – all changes will be seen only by you.

Personal tabs can be accessed anytime from any device, even offline.
Learn more »
comments
print report bad tab
1 comment total.
+1 reply
zamorski.n 10 Sep 23, 2016 04:12 AM

I think it's actually easier to leave it all tuned down to half-step, just transpose the bottom string all 2 frets down. The bridge alone is way easier that way. Otherwise perfect tab

guest
You may want to rate the tab now too:
select rating
Wanna post a correction for this tab? Suggest correction