Oops, an error
Loading. Please wait.

Promise Everything Tab

430 views 30 this week
no commentswrite comment
1 2 3 4 5
2 more votes to show rating
add to favorites
launch autoscroll
font size
0
reset
how to read this tab
guitar tuner
Autoscroll
slow
fast
+/-
esc
set tempo
stop
Help us to improve Ultimate-Guitar.com Take our survey!
×
Author
Tuning
D# G# C# F# A# D#
Note: not all of this is correct, especially the solo part, but as there is no tab of it yet, i decided to
give it a go. Please feel free to correct me if you have a better version!

Basement - Promise Everything

Intro/Verse 
eb|---------------------------------------------| 
Bb|--9-9-9-9--10-10-10-10-----------------------|  
Gb|--9-9-9-9--10-10-10-10---6-6-6-6-6-6-6-------|  
Db|--9-9-9-9--10-10-10-10---7-7-7-7-7-7-7-------| x8  
Ab|--7-7-7-7--8--8--8--8----7-7-7-7-7-7-7-------| 
Eb|-------------------------5-5-5-5-5-5-5-------|

Chorus ("When I'm high...")
eb|-------------------------|----|--------------| 
Bb|-------------------------|----|--------------|
Gb|-2-2-2-2—-6-6-6-6-6-6-6--|----|-2-2-2-2-2-2--|  
Db|-3-3-3-3--7-7-7-7-7-7-7--|-x3-|-3-3-3-3-3-3--|  
Ab|-3-3-3-3--5-5-5-5-5-5-5--|----|-3-3-3-3-3-3--| 
Eb|-1-1-1-1--5-5-5-5-5-5-5--|----|-1-1-1-1-1-1--|

Verse
eb|---------------------------------------------| 
Bb|--9-9-9-9--10-10-10-10-----------------------|  
Gb|--9-9-9-9--10-10-10-10---6-6-6-6-6-6-6-------|  
Db|--9-9-9-9--10-10-10-10---7-7-7-7-7-7-7-------| x4  
Ab|--7-7-7-7--8--8--8--8----7-7-7-7-7-7-7-------| 
Eb|-------------------------5-5-5-5-5-5-5-------|

"I won't ask for love..."
eb|---------------------------------------------| 
Bb|-----------5-5-5-5---------------------------|
Gb|-2-2-2-2---5-5-5-5---6-6-6-6-6-6-------------|  
Db|-3-3-3-3---5-5-5-5---7-7-7-7-7-7-------------| x2
Ab|-3-3-3-3---3-3-3-3---7-7-7-7-7-7-------------| 
Eb|-1-1-1-1-------------5-5-5-5-5-5-------------|

Chorus ("When I'm high...")
eb|-------------------------|----|----------------------------------| 
Bb|-------------------------|----|----------------------------------|
Gb|-2-2-2-2—-6-6-6-6-6-6-6--|----|-2-2-2-2-2-2-2-2-2-2-2-2-2-2-2----|  
Db|-3-3-3-3--7-7-7-7-7-7-7--|-x3-|-3-3-3-3-3-3-3-3-3-3-3-3-3-3-3----|  
Ab|-3-3-3-3--5-5-5-5-5-5-5--|----|-3-3-3-3-3-3-3-3-3-3-3-3-3-3-3----|
Eb|-1-1-1-1--5-5-5-5-5-5-5--|----|-1-1-1-1-1-1-1-1-1-1-1-1-1-1-1----|

Break (Bass Solo)

You can play this during/at the end of it but don't have to
eb|---------------------------------------------------------------------------| 
Bb|---------------------------------------------------------------------------|
Gb|-10--10-10-10-10-10--9-9-7-7-7-7-7--9-5-5----------------------------------|  
Db|-10--10-10-10-10-10--9-9-7-7-7-7-7--9-7-5-7-7-7-5-5-5-7-7-7-5-5-5-7-7-5-5--| 
Ab|-8---8--8--8---8--8--7-7-5-5-5-5-5--7-5-3-7-7-7-5-5-5-7-7-7-5-5-5-7-7-5-5--| 
Eb|------------------------------------------5-5-5-3-3-3-5-5-5-3-3-3-5-5-3-3--|
(play the note on A/E string for bass solo)

Solo (something along the lines of this)
eb|--------------------------------------------------------------| 
Bb|---10-----10-----10----8----8---------8---5---5---8---5---5---|
Gb|-----10-----10-------9----9-----9-----------------------------|  
Db|--------------------------------------------------------------| x4  
Ab|-8------8-----------7-----7---7------7--7---7--7---7---7------| 
Eb|--------------------------------------------------------------|

"Feeling like a child..."
eb|------------------------------------------------------| 
Bb|------------------------------------------------------|
Gb|--10-10-10-10-10--9--9--9--9--9---5-5-5-5-5-----------|  
Db|--10-10-10-10-10--10-10-10-10-10--7-7-7-7-7-----------|  x4
Ab|--8--8--8--8--8---10-10-10-10-10--7-7-7-7-7-----------| 
Eb|------------------8--8--8--8--8---5-5-5-5-5-----------|

"Turn around and end as you begin...promise nothing"
eb|---------------------------------------------| 
Bb|-----------------------------------------5-5-|
Gb|-2-2-2-2---5-5-5-5---6-6-6-6-6-6----2-2--5-5-|  
Db|-3-3-3-3---5-5-5-5---7-7-7-7-7-7----3-3--5-5-|  
Ab|-3-3-3-3---3-3-3-3---7-7-7-7-7-7----3-3--3-3-| 
Eb|-1-1-1-1-------------5-5-5-5-5-5----1-1------|
Suggest correction
Give kudos to tab author, rate the tab!
1 2 3 4 5
comments
print report bad tab
guest
You may want to rate the tab now too:
select rating
Wanna post a correction for this tab? Suggest correction