Oops, an error
Loading. Please wait.

Whole tab

version 2
version 2

Whole song

Interactive

643 views 9 this week
no commentswrite comment
1 2 3 4 5
3 more votes to show rating
add to favorites
×
Save as Personal and add changes to this tab that will be seen only by you. Learn more ›
×
You can save this tab as Personal to edit and correct it or add notes. All changes will be seen only by you. Learn more »
launch autoscroll
font size
0
reset
how to read this tab
guitar tuner
edit
Autoscroll
slow
fast
+/-
esc
set tempo
stop
 intro
eb|-------------------------|
Bb|-------------------------|
Gb|--6-6--6--6-6-/--11------|
Db|-------------------------|
Ab|--4-4--4--4-4-/--9-------|
Db|--0-0--0--0-0----0-------|


     Verse
eb|------------------------------------------------------------|
Bb|------------------------------------------------------------|
Gb|-6-6--6-6-/-11-1111-111111--4--4-4-4-4--3-3-3---------------|
Db|----------------------------4--4-4-4-4--4-4-4---------------| x2
Ab|-4-4--4-4-/-9--9-9--9-9-9-----------------------------------|
Db|-0-0--0-0---0--0-0--0-0-0---4--4-4-4-4--4-4-4---------------|


eb|------------------------------------------------------------|
Bb|------------------------------------------------------------|
Gb|-6-6--6-6-/-11-1111-111111--4--4-4-4-4--3-3-3---------------|
Db|----------------------------4--4-4-4-4--4-4-4---------------| 
Ab|-4-4--4-4-/-9--9-9--9-9-9-----------------------------------|
Db|-0-0--0-0---0--0-0--0-0-0---4--4-4-4-4--4-4-4---------------|


eb|------------------------------------------------------------|
Bb|------------------------------------------------------------|
Gb|-6-6--6-6-/-11-1111-111111--4--4-4-4-4--3-3-3---------------|
Db|----------------------------4--4-4-4-4--4-4-4---------------|
Ab|-4-4--4-4-/-9--9-9--9-9-9-----------------------------------|
Db|-0-0--0-0---0--0-0--0-0-0---4--4-4-4-4--4-4-4---------------|

     
   
Pre-Chorus

(lead guitar) (gradually release palm mute)
eb|------------------------------------------------------------|
Bb|------------------------------------------------------------|
Gb|------------------------------------------------------------|
Db|--4-4-4-4-4-4-4-4-4-4-4-4-4-4-4-4-4-4-4-4-4-4-4-4-4-4-4-4-4-|
Ab|--4-4-4-4-4-4-4-4-4-4-4-4-4-4-4-4-4-4-4-4-4-4-4-4-4-4-4-4-4-|
Db|--4-4-4-4-4-4-4-4-4-4-4-4-4-4-4-4-4-4-4-4-4-4-4-4-4-4-4-4-4-|
     * * * * * * * * * * * * * * * * * * * * * * *

  Chorus

(rhythm guitar)
eb|------------------------------------------------------------------|
Bb|------------------------------------------------------------------|
Gb|--------------------------------------------------1111111111b-9-7-|
Db|-5-5-5-5-5-5-5-5-4-4-4-4-4-4-4-4-5-5-5-5-5-5-5-5------------------|
Ab|-5-5-5-5-5-5-5-5-4-4-4-4-4-4-4-4-5-5-5-5-5-5-5-5--9-9-9-9-9b--7-5-|    |lyrics|
Db|-5-5-5-5-5-5-5-5-4-4-4-4-4-4-4-4-5-5-5-5-5-5-5-5--0-0-0-0-0---0-0-|   lie to me
                                                                         lie to me
(lead guitar)                                                            make me see
eb|------------------------------------------------------------------|
Bb|-----7------7-------7-------7-------7-------7---------------------|
Gb|---9--9---9---9---9---9---9---9---9---9---9---9---1111111111b-9-7-|
Db|-9------9-------8-------8-------9-------9-------------------------|
Ab|--------------------------------------------------9-9-9-9-9b--7-5-|
Db|------------------------------------------------------------------|

(rhythm guitar)
eb|---------------------------------------------------|
Bb|---------------------------------------------------|
Gb|-4-4-4-4-4-4-4-4-3-3-3-3-3-3-3-3-4-4-4-4-4-4-4-4---|
Db|-5-5-5-5-5-5-5-5-4-4-4-4-4-4-4-4-5-5-5-5-5-5-5-5---|
Ab|-5-5-5-5-5-5-5-5-4-4-4-4-4-4-4-4-5-5-5-5-5-5-5-5---|    |lyrics|
Db|-5-5-5-5-5-5-5-5-4-4-4-4-4-4-4-4-5-5-5-5-5-5-5-5---|   lie to me
                                                          lie to me
(lead guitar)                                             make me...
eb|---------------------------------------------------|
Bb|-----7------7-------7-------7-------7-------7------|
Gb|---9--9---9---9---9---9---9---9---9---9---9---9----|
Db|-9------9-------8-------8-------9-------9----------|
Ab|---------------------------------------------------|
Db|---------------------------------------------------|


    prechorus 2
(gradually release palm mute)
eb|---------------------------------------------------------------------|   
Bb|---------------------------------------------------------------------|  
Gb|----------------------------------------------------3333333333333333-|  
Db|-7777777777777777-4444444444444444-5555555555555555-4444444444444444-|  
Ab|-5555555555555555-4444444444444444-5555555555555555-4444444444444444-|  
Db|-5555555555555555-4444444444444444-5555555555555555-4444444444444444-|
    **************** **************** **************** *********

|lyrics|
deep inside this hole
i will offer you my soul
waiting, hoping with each breath that
you will leave it in my chest

    chorus
(rhythm guitar)
eb|------------------------------------------------------------------|
Bb|------------------------------------------------------------------|
Gb|--------------------------------------------------1111111111b-9-7-|
Db|-5-5-5-5-5-5-5-5-4-4-4-4-4-4-4-4-5-5-5-5-5-5-5-5------------------|
Ab|-5-5-5-5-5-5-5-5-4-4-4-4-4-4-4-4-5-5-5-5-5-5-5-5--9-9-9-9-9b--7-5-|    |lyrics|
Db|-5-5-5-5-5-5-5-5-4-4-4-4-4-4-4-4-5-5-5-5-5-5-5-5--0-0-0-0-0---0-0-|   lie to me
                                                                         lie to me
(lead guitar)                                                            make me see
eb|------------------------------------------------------------------|
Bb|-----7------7-------7-------7-------7-------7---------------------|
Gb|---9--9---9---9---9---9---9---9---9---9---9---9---1111111111b-9-7-|
Db|-9------9-------8-------8-------9-------9-------------------------|
Ab|--------------------------------------------------9-9-9-9-9b--7-5-|
Db|------------------------------------------------------------------|

(rhythm guitar)
eb|---------------------------------------------------|
Bb|---------------------------------------------------|
Gb|-4-4-4-4-4-4-4-4-3-3-3-3-3-3-3-3-4-4-4-4-4-4-4-4---|
Db|-5-5-5-5-5-5-5-5-4-4-4-4-4-4-4-4-5-5-5-5-5-5-5-5---|
Ab|-5-5-5-5-5-5-5-5-4-4-4-4-4-4-4-4-5-5-5-5-5-5-5-5---|    |lyrics|
Db|-5-5-5-5-5-5-5-5-4-4-4-4-4-4-4-4-5-5-5-5-5-5-5-5---|   lie to me
                                                          lie to me
(lead guitar)                                             make me...
eb|---------------------------------------------------|
Bb|-----7------7-------7-------7-------7-------7------|
Gb|---9--9---9---9---9---9---9---9---9---9---9---9----|
Db|-9------9-------8-------8-------9-------9----------|
Ab|---------------------------------------------------|
Db|---------------------------------------------------|

 breakdown
(rhythm guitar) (low fuzz distortion)
eb|-------------------------------|
Bb|-------------------------------|
Gb|-------------------------------|
Db|--2h4-4-4-4--2h4-4-4-4b-4-4----| x3
Ab|--2h4-4-4-4--2h4-4-4-4b-4-4----|
Db|--2h4-4-4-4--2h4-4-4-4b-4-4----|

eb|-------------------------------|
Bb|--------------[harmonics/-]----|
Gb|--------------[open-strings]---|
Db|--2h4-4-4-4--------------------|
Ab|--2h4-4-4-4--------------------|
Db|--2h4-4-4-4--------------------|

 outro/breakdown
(rhythm guitar) (full distortion)
eb|-------------------------------|
Bb|-------------------------------|
Gb|---------------------4-4-4-4---|
Db|--2h4-4-4-4--2h4-4-4-4-4-4-4---| x12
Ab|--2h4-4-4-4--2h4-4-4-2-2-2-2---|
Db|--2h4-4-4-4--2h4-4-4-----------|

(lead guitar)
eb|--0--2--0---------------------|
Bb|------------------------------|
Gb|-----------3-3-3-3-3b-3-3-----|
Db|------------------------------| x12
Ab|------------------------------|
Db|------------------------------|

            
            
Suggest correction
Creating personal tab
Creating personal tab
You can edit any tab online and save it as your Personal.

You can edit, replace or remove any tab part or add personal notes – all changes will be seen only by you.

Personal tabs can be accessed anytime from any device, even offline.
Learn more »
Give kudos to tab author, rate the tab!
1 2 3 4 5
comments
print report bad tab
guest
You may want to rate the tab now too:
select rating
Wanna post a correction for this tab? Suggest correction