Oops, an error
Loading. Please wait.

Lift Up Your Hands Tab

43 views 3 this week
no commentswrite comment
1 2 3 4 5
3 more votes to show rating
add to favorites
launch autoscroll
font size
0
reset
how to read this tab
guitar tuner
Autoscroll
slow
fast
+/-
esc
set tempo
stop
Help us to improve Ultimate-Guitar.com Take our survey!
×
Author
Difficulty
Capo
intermediate
2nd fret
Tabs written and arranged by Edwin-E (in YouTube)
Blog: http://guitarplucking.blogspot.com
Facebook Page: http://facebook.com/EdwinEGuitar

Video Cover in YouTube:  https://youtu.be/F-kKtAoQ01Y

Capo on 2nd Fret

[Intro] 

E|-----0--1--------0--5--------------------0-----------------1--3--|
B|--3-----------3-----3--6--3--0--1-----------1-----------3-----0--|
G|-----------2--------------------------0--------0-----2--------0--|
D|--------0--------------------------2--------------0-----------0--|
A|--------------------------------3-----------------------------2--|
E|--------------------3-----------------------------------------3--|
         Dm           G           C                 Dm          G


[Verse 1]

E|--0--------------0--3--1--------0-----------0-----------------|
B|--------------1-----1-----1--3-----------1-----3-----------1--|
G|--------0--0--------2-----------------0-----------------0-----|
D|-----2--------------3--------------2-----------------0--------|
A|--3-----------------------------3-----------------2--------3--|
E|-----------------------------------------------3--------------|
    C           F                 C       G  C 
   Life is not all that bad, my friend, hmmm

E|-----1--3--5--5--5--5--|
B|--1--------1--1--1--1--|
G|-----------------------|
D|-----------------------|
A|-----------------------|
E|-----------1-----------|
             F
   If you believe in yourself

E|--5--5-----------------------|
B|--------1--0--------0--1--3--|
G|-----------------------------|
D|-----------------0-----------|
A|--------------2--------------|
E|-----------3-----------------|
              G
   If you believe there's someone

E|--7--5--3--3--2--2h3--|
B|----------------------|
G|----------------------|
D|----------------------|
A|----------------------|
E|-----0----------------|
         Em
   Who walks through life with you

E|--------3--1--0--0--1-----|
B|--------1--------------1--|
G|--------2-----------------|
D|-----2-----------0--------|
A|--0-----------------------|
E|--------------------------|
 Am             Dm
   You'll never be alone

E|-----0--0--1-----|
B|-----0--------1--|
G|--2--------------|
D|-----------------|
A|-----------------|
E|-----3-----------|
          G
   Just learn to reach out

E|-----5--3--0--3--|
B|--1--------------|
G|-----------------|
D|-----------------|
A|-----------------|
E|-----0-----------|
       Em
   And open your heart

E|--------3--1--0--0--1-----|
B|--------1--------------1--|
G|--------2-----------------|
D|-----2-----------0--------|
A|--0-----------------------|
E|--------------------------|
 Am         Dm
   Lift up hands to God

E|--------0--0h1-----------------0--------0--|
B|-----1--0-------1--3--1-----------1-----1--|
G|--2-------------------------0--------0--3--|
D|-------------------------2--------------2--|
A|----------------------3-----------------3--|
E|--------3----------------------------------|
        G                  C  C7
   And He'll show you the way

[Chorus]

E|--0--1--3--5--5--5--5--5--5--5--|
B|-----------1--1--1--1--1--3--3--|
G|--------------------------------|
D|--------------------------------|
A|--------------------------------|
E|-----------1--------------3-----|
       G   C7     F                  G
   And He said, "Cast your burdens upon Me

E|--8/10--8--7--7--7--7h8--7---------------0--|
B|----------------------------8v-----------2--|
G|--------------------------------------0--0--|
D|-----------------------------------2-----2--|
A|--------------------------------0-----------|
E|--------------0-----------------------------|
                  Em       A7
   Those who are heavily laden,

E|-------0--1--1--1--1--1--1--1--1--|
B|--2/3-----3--3--3--3--3--3--3--0--|
G|----------2-----------------------|
D|----------0-----------------------|
A|----------------------------------|
E|-------------------------------3--|
           Dm                      G
   Come to Me, all of you who are tired

E|--1--------------0--0--------0--|
B|-----1--1--3--3--1--1--1-----1--|
G|--------------------------0--3--|
D|-----------------------------2--|
A|--------------3--------------3--|
E|--------------------------------|
                C          C7 
   Of carrying heavy loads

E|--1--3-—5--5--5--5--5--5--5--5--|
B|--------1--1--1--1--1--1--3--3--|
G|--------------------------------|
D|--------------------------------|
A|--------------------------------|
E|--------1-----------------3-----|
    G  C7   F                       G
   For the yoke I will give you is easy

E|--8/10--8--7--7--7--7h8--7---------------0--|
B|----------------------------8v-----------2--|
G|--------------------------------------0--0--|
D|-----------------------------------2-----2--|
A|--------------------------------0-----------|
E|--------------0-----------------------------|
          Em             Am
   And My burden is light

E|-------0--1--------1--5--------------------0--------1--3--|
B|--2/3-----3--3-----3--3--6--3--0--1-----------1-----3--0--|
G|----------2-----2--2--------------------0--------0--2--0--|
D|----------0--------0-----------------2--------------0--0--|
A|----------------------------------3--------------------2--|
E|----------------------3--------------------------------3--|
           Dm     G                C
   Come to Me and I will give you rest

[Verse 2]

E|--0--------------0--3--1--------0-----------0-----------------|
B|--------------1-----1-----1--3-----------1-----3-----------1--|
G|--------0--0--------2-----------------0-----------------0-----|
D|-----2--------------3--------------2-----------------0--------|
A|--3-----------------------------3-----------------2--------3--|
E|-----------------------------------------------3--------------|
    C                  F                 C      G   C
   When you feel the world is tumblin’ down on you

E|-----1--3--5--5--|
B|--1--------1--1--|
G|-----------------|
D|-----------------|
A|-----------------|
E|-----------1-----|
                F
   And you have no one

E|--------------3/5--3-----------3-----|
B|--1--0--0--1----------------------0--|
G|----------------------------0--------|
D|-------------------------2-----------|
A|----------------------2--------------|
E|-----3-------------0-----------------|
         G              Em Am
   That you can hold on to

E|--------3--1--0--0--1-----|
B|--1-----1--------------1--|
G|--------2-----------------|
D|-----2-----------0--------|
A|--0-----------------------|
E|--------------------------|
                 Dm
   Just face the rising sun

E|-----0--0--1-----|
B|-----0--------1--|
G|--2--------------|
D|-----------------|
A|-----------------|
E|-----3-----------|
       G
And you'll see hope,

E|-----5--3--0--3--|
B|--1--------------|
G|-----------------|
D|-----------------|
A|-----------------|
E|-----0-----------|
               Em             Am
   And there's no need to run

E|--------3--1--0--0--1-----|
B|--------1--------------1--|
G|--------2-----------------|
D|-----2-----------0--------|
A|--0-----------------------|
E|--------------------------|
                 Dm
   Lift up your hands to God,

E|--------0--0h1-----------------0--------0--|
B|-----1--0-------1--3--1-----------1-----1--|
G|--2-------------------------0--------0--3--|
D|-------------------------2--------------2--|
A|----------------------3-----------------3--|
E|--------3----------------------------------|
        G                       C     C7
   And He'll make you feel all right 

(Repeat Chorus except last line)

E|-------0--1--------1--5--------------------0--------0--|
B|--2/3-----3--3-----3--3--6--3--0--1-----------1-----1--|
G|----------2-----2--2--------------------0--------0--0--|
D|----------0--------0-----------------2--------------2--|
A|----------------------------------3-----------------3--|
E|----------------------3--------------------------------|
           Dm     G                 C
   Come to Me and I will give you rest

[Outro]

E|-------0--1--------1--5-----------|
B|--2/3-----3--3-----3--3--6--3--0--|
G|----------2-----2--2--------------|
D|----------0--------0--------------|
A|----------------------------------|
E|----------------------3-----------|
           Dm     G                C

E|--0--------------0--3--1--------0--|
B|--1-----------1-----1-----1--3--1--|
G|--------0--0--------2-----------0--|
D|-----2--------------3-----------2--|
A|--3-----------------------------3--|
E|-----------------------------------|
    C                 F           C 

  ***********************************
| /   Slide up
| h   Hammer-on
***********************************
Suggest correction
Give kudos to tab author, rate the tab!
1 2 3 4 5
comments
print report bad tab
guest
You may want to rate the tab now too:
select rating
Wanna post a correction for this tab? Suggest correction