Oops, an error
Loading. Please wait.

Burns My Eye Bass Tab

16 views 3 this week
no commentswrite comment
1 2 3 4 5
3 more votes to show rating
add to favorites
launch autoscroll
font size
0
reset
guitar tuner
Autoscroll
slow
fast
+/-
esc
set tempo
stop
Help us to improve Ultimate-Guitar.com Take our survey!
×
[Intro]

G|-----------------------------------|----------------------------------------|
D|-----------------------------------|----------------------------------------|
A|---------5-5-5-5-7-7-7-7-7-7-7-7-7-|---------5-5-5-5-7-7-7-7-7-7-7-7--------|
E|-7-7-7-7---------------------------|-7-7-7-7--------------------------------|

[Verse]

G|-----------------------------------|----------------------------------------|
D|-----------------------------------|----------------------------------------|
A|---------5-5-5-5-7-7-7-7-7-7-7-7-7-|---------5-5-5-5-7-7-7-7-7-7-7-7--------|
E|-7-7-7-7---------------------------|-7-7-7-7--------------------------------|

G|---------------------------------------------------------------------------|
D|---------------------------------------------------------------------------|
A|---------5-5-5-5---------7-7-7-7----------5-5-5-5-7-7-7-7-7-7-7-7----------|
E|-7-7-7-7---------3-3-3-3---------7-7-7-7-----------------------------------|

[Chorus]

G|-----------------------------------------|-----------------------------------------|
D|-----------------------------------------|-----------------------------------------|
A|-----------------7-7-7-5-5-5-5-5-5-5-5-5-|-------------------7-7-7-5-5-5-5-5-5-5-5-|
E|-2-2-2-2-2-2-2-2-------------------------|-2-2-2-2-2-2-2-2-2-----------------------|

G|-----------------------------------------|
D|-----------------------------------------|
A|-----------------7-7-7-5-5-5-5-5-5-5-5-5-|
E|-2-2-2-2-2-2-2-2-------------------------|

G|--------------------------------------------------|
D|--------------------------------------------------|
A|--------------------------------------------------|
E|-2-2-2-2-2-2-2-2-2-2-5-5-5-5-5-5-5-5-5-5-5--------|

POST CHORUS

G|-----------------------------------|----------------------------------------|
D|-----------------------------------|----------------------------------------|
A|---------5-5-5-5-7-7-7-7-7-7-7-7-7-|---------5-5-5-5-7-7-7-7-7-7-7-7--------|
E|-7-7-7-7---------------------------|-7-7-7-7--------------------------------|

G|-----------------------------------|----------------------------------------|
D|-----------------------------------|----------------------------------------|
A|---------5-5-5-5-7-7-7-7-7-7-7-7-7-|---------5-5-5-5-7-7-7-7-7-7-7-7--------|
E|-7-7-7-7---------------------------|-7-7-7-7--------------------------------|

[Verse]

G|-----------------------------------|----------------------------------------|
D|-----------------------------------|----------------------------------------|
A|---------5-5-5-5-7-7-7-7-7-7-7-7-7-|---------5-5-5-5-7-7-7-7-7-7-7-7--------|
E|-7-7-7-7---------------------------|-7-7-7-7--------------------------------|

G|---------------------------------------------------------------------------|
D|---------------------------------------------------------------------------|
A|---------5-5-5-5---------7-7-7-7----------5-5-5-5-7-7-7-7-7-7-7-7----------|
E|-7-7-7-7---------3-3-3-3---------7-7-7-7-----------------------------------|

[Chorus]

G|-----------------------------------------|-----------------------------------------|
D|-----------------------------------------|-----------------------------------------|
A|-----------------7-7-7-5-5-5-5-5-5-5-5-5-|-------------------7-7-7-5-5-5-5-5-5-5-5-|
E|-2-2-2-2-2-2-2-2-------------------------|-2-2-2-2-2-2-2-2-2-----------------------|

G|-----------------------------------------|
D|-----------------------------------------|
A|-----------------7-7-7-5-5-5-5-5-5-5-5-5-|
E|-2-2-2-2-2-2-2-2-------------------------|

G|--------------------------------------------------|
D|--------------------------------------------------|
A|--------------------------------------------------|
E|-2-2-2-2-2-2-2-2-2-2-5-5-5-5-5-5-5-5-5-5-5--------|

POST CHORUS/OUTRO

G|-----------------------------------|----------------------------------------|
D|-----------------------------------|----------------------------------------|
A|---------5-5-5-5-7-7-7-7-7-7-7-7-7-|---------5-5-5-5-7-7-7-7-7-7-7-7--------|
E|-7-7-7-7---------------------------|-7-7-7-7--------------------------------|

G|-----------------------------------|----------------------------------------|
D|-----------------------------------|----------------------------------------|
A|---------5-5-5-5-7-7-7-7-7-7-7-7-7-|---------5-5-5-5-7-7-7-7-7-7-7-7--------|
E|-7-7-7-7---------------------------|-7-7-7-7-------------------------7----7-|
Suggest correction
Give kudos to tab author, rate the tab!
1 2 3 4 5
comments
print report bad tab
guest
You may want to rate the tab now too:
select rating
Wanna post a correction for this tab? Suggest correction