Oops, an error
Loading. Please wait.

Electric Bass Tab

13 views 3 this week
no commentswrite comment
1 2 3 4 5
2 more votes to show rating
add to favorites
launch autoscroll
font size
0
reset
guitar tuner
Autoscroll
slow
fast
+/-
esc
set tempo
stop
Help us to improve Ultimate-Guitar.com Take our survey!
×
[Intro]

G|---------------------------------------------------------------------------|
D|---------------------------------------------------------------------------|
A|-2------2-2-0-0---2------2-2-5-7-0-2-------2-2-0-0---2-------2-2-2-0-0-----|
E|----------------0----------------------------------0-------------------0---|

G|----------------------------------------------|---------------------------------------------|
D|----------------------------------------------|---------------------------------------------|
A|-2--2-2--2-2--2-2-0-2-0------------------5----|-2--2-2--2-2--2-2-0-2-0------------------5---|
E|------------------------3--3-3--3-3--3h5----5-|------------------------3--3-3--3-3--3h5---5-|

[Verse]

G|----------------------------------------------|---------------------------------------------|
D|----------------------------------------------|---------------------------------------------|
A|-2--2-2--2-2--2-2-0-2-0------------------5----|-2--2-2--2-2--2-2-0-2-0------------------5---|
E|------------------------3--3-3--3-3--3h5----5-|------------------------3--3-3--3-3--3h5---5-|

G|----------------------------------------------|---------------------------------------------|
D|----------------------------------------------|---------------------------------------------|
A|-2--2-2--2-2--2-2-0-2-0------------------5----|-2--2-2--2-2--2-2-0-2-0------------------5---|
E|------------------------3--3-3--3-3--3h5----5-|------------------------3--3-3--3-3--3h5---5-|

[Chorus]

G|----------------------------------|----------------------------------|
D|----------------------------------|----------------------------------|
A|-2-2-2-2-2-2-2-2-2-2-2-2-5-5-5-5--|-2-2-2-2-2-2-2-2-2-2-2-2-5-5-5-5--|
E|----------------------------------|----------------------------------|

G|----------------------------------|----------------------------------|
D|----------------------------------|----------------------------------|
A|-2-2-2-2-2-2-2-2-2-2-2-2-5-5-5-5--|-2-2-2-2-2-2-2-2-2-2-2-2-5-5-5-5--|
E|----------------------------------|----------------------------------|


[Post Chorus]

G|---------------------------------------------------|
D|---------------------------------------------------|
A|-2-0-2-0-2-0-------------------------5-5-5-7-------|
E|-------------3-0-3-0-3-0-2-0-2-0-2-0---------5/7---|

G|---------------------------------------------------|
D|---------------------------------------------------|
A|-2-0-2-0-2-0-------------------------5-5-5-7-------|
E|-------------3-0-3-0-3-0-2-0-2-0-2-0---------5/7---|

G|----------------------------------------------|---------------------------------------------|
D|----------------------------------------------|---------------------------------------------|
A|-2--2-2--2-2--2-2-0-2-0------------------5----|-2--2-2--2-2--2-2-0-2-0------------------5---|
E|------------------------3--3-3--3-3--3h5----5-|------------------------3--3-3--3-3--3h5---5-|

[Verse]

G|----------------------------------------------|---------------------------------------------|
D|----------------------------------------------|---------------------------------------------|
A|-2--2-2--2-2--2-2-0-2-0------------------5----|-2--2-2--2-2--2-2-0-2-0------------------5---|
E|------------------------3--3-3--3-3--3h5----5-|------------------------3--3-3--3-3--3h5---5-|

G|----------------------------------------------|---------------------------------------------|
D|----------------------------------------------|---------------------------------------------|
A|-2--2-2--2-2--2-2-0-2-0------------------5----|-2--2-2--2-2--2-2-0-2-0------------------5---|
E|------------------------3--3-3--3-3--3h5----5-|------------------------3--3-3--3-3--3h5---5-|

[Chorus]

G|----------------------------------|----------------------------------|
D|----------------------------------|----------------------------------|
A|-2-2-2-2-2-2-2-2-2-2-2-2-5-5-5-5--|-2-2-2-2-2-2-2-2-2-2-2-2-5-5-5-5--|
E|----------------------------------|----------------------------------|

G|----------------------------------|----------------------------------|
D|----------------------------------|----------------------------------|
A|-2-2-2-2-2-2-2-2-2-2-2-2-5-5-5-5--|-2-2-2-2-2-2-2-2-2-2-2-2-5-5-5-5--|
E|----------------------------------|----------------------------------|

G|----------------------------------|----------------------------------|
D|----------------------------------|----------------------------------|
A|-2-2-2-2-2-2-2-2-2-2-2-2-5-5-5-5--|-2-2-2-2-2-2-2-2-2-2-2-2-5-5-5-5--|
E|----------------------------------|----------------------------------|

G|----------------------------------|----------------------------------|
D|----------------------------------|----------------------------------|
A|-2-2-2-2-2-2-2-2-2-2-2-2-5-5-5-5--|-2-2-2-2-2-2-2-2-2-2-2-2-5-5-5-5--|
E|----------------------------------|----------------------------------|

[Outro]

G|---------------------------------------------------|
D|---------------------------------------------------|
A|-2-0-2-0-2-0-------------------------5-5-5-7-------|
E|-------------3-0-3-0-3-0-2-0-2-0-2-0---------5/7---|

G|---------------------------------------------------|
D|---------------------------------------------------|
A|-2-0-2-0-2-0-------------------------5-5-5-7-------|
E|-------------3-0-3-0-3-0-2-0-2-0-2-0---------5/7---|

G|----------------------------------------------|---------------------------------------------| 
D|----------------------------------------------|---------------------------------------------|
A|-2--2-2--2-2--2-2-0-2-0------------------5----|-2--2-2--2-2--2-2-0-2-0------------------5---|
E|------------------------3--3-3--3-3--3h5----5-|------------------------3--3-3--3-3--3h5---5-|

Play until it fades out

| h   Hammer-on

| /   Slide up

Suggest correction
Give kudos to tab author, rate the tab!
1 2 3 4 5
comments
print report bad tab
guest
You may want to rate the tab now too:
select rating
Wanna post a correction for this tab? Suggest correction