Oops, an error
Loading. Please wait.

For Blood Bass Tab

13 views 1 this week
no commentswrite comment
1 2 3 4 5
3 more votes to show rating
add to favorites
launch autoscroll
font size
0
reset
guitar tuner
Autoscroll
slow
fast
+/-
esc
set tempo
stop
Help us to improve Ultimate-Guitar.com Take our survey!
×
[Pre-Chorus]

G|----------------------|-------------------------|
D|----------------------|-------------------------|
A|-----9b-7-------------|-----9b-7----------------|
E|-9-9------7-7-7-9-9-7-|-9-9------7-7-7-9-9-7----|

G|----------------------|-------------------------|
D|----------------------|-------------------------|
A|-----9b-7-------------|---------7---------------|
E|-9-9------7-7-7-9-9-7-|-9-9-0-0---7-7-9-9-------|

[Chorus]

G|---------------------------------|-------------------------------------------|
D|---------------------------------|-------------------------------------------|
A|---------------------------------|-7-7-7-7-7-7-7-7-7-7-----------------------|
E|-9-9-9-9-9-9-9-9-7-7-7-7-7-7-7-7-|---------------------9-9-9-9-9-9-9-9-9-9-9-|

G|---------------------------------|-------------------------------------------|
D|---------------------------------|-------------------------------------------|
A|---------------------------------|-7-7-7-7-7-7-7-7-7-7-----------------------|
E|-9-9-9-9-9-9-9-9-7-7-7-7-7-7-7-7-|---------------------9-9-9-9-9-9-9-9-9-9-9-|

[Pre-Chorus]

G|----------------------|-------------------------|
D|----------------------|-------------------------|
A|-----9b-7-------------|-----9b-7----------------|
E|-9-9------7-7-7-9-9-7-|-9-9------7-7-7-9-9-7----|

G|----------------------|-------------------------|
D|----------------------|-------------------------|
A|-----9b-7-------------|---------7---------------|
E|-9-9------7-7-7-9-9-7-|-9-9-0-0---7-7-9-9-------|

[Chorus]

G|---------------------------------|-------------------------------------------|
D|---------------------------------|-------------------------------------------|
A|---------------------------------|-7-7-7-7-7-7-7-7-7-7-----------------------|
E|-9-9-9-9-9-9-9-9-7-7-7-7-7-7-7-7-|---------------------9-9-9-9-9-9-9-9-9-9-9-|

G|---------------------------------|-------------------------------------------|
D|---------------------------------|-------------------------------------------|
A|---------------------------------|-7-7-7-7-7-7-7-7-7-7-----------------------|
E|-9-9-9-9-9-9-9-9-7-7-7-7-7-7-7-7-|---------------------9-9-9-9-9-9-9-9-9-9-9-|

[Bridge]

G|-------------------------------------------------------------------|
D|-------------------------------------------------------------------|
A|---------------5-5-5-5------------------------5-5-5-5--------------|
E|-2-2-2-2-2-2-2---------5-7-7--2-2-2-2-2-2-2-2----------5-7-7-------|

G|-------------------------------------------------------------------|
D|-------------------------------------------------------------------|
A|---------------5-5-5-5------------------------5-5-5-5--------------|
E|-2-2-2-2-2-2-2---------5-7-7--2-2-2-2-2-2-2-2----------5-7-7-------|

[Outro]

G|---------------------------------|-------------------------------------------|
D|---------------------------------|-------------------------------------------|
A|---------------------------------|-7-7-7-7-7-7-7-7-7-7-----------------------|
E|-9-9-9-9-9-9-9-9-7-7-7-7-7-7-7-7-|---------------------9-9-9-9-9-9-9-9-9-9-9-|

G|---------------------------------|-------------------------------------------|
D|---------------------------------|-------------------------------------------|
A|---------------------------------|-7-7-7-7-7-7-7-7-7-7-----------------------|
E|-9-9-9-9-9-9-9-9-7-7-7-7-7-7-7-7-|---------------------9---------------------|

************************************
| b   Bend
Suggest correction
Give kudos to tab author, rate the tab!
1 2 3 4 5
comments
print report bad tab
guest
You may want to rate the tab now too:
select rating
Wanna post a correction for this tab? Suggest correction