Oops, an error
Loading. Please wait.

High School Roaches Chords

49 views 1 this week
no commentswrite comment
1 2 3 4 5
3 more votes to show rating
add to favorites
launch autoscroll
font size
0
reset
transpose
0
reset
display chords
guitar tuner
Autoscroll
slow
fast
+/-
esc
set tempo
stop
Help us to improve Ultimate-Guitar.com Take our survey!
×
Author
Difficulty
Capo
novice
1st fret
About this tab version
First tab for this song on the website, mix between chords and tabs. Was this info helpful? Yes No
Strumming
Intro/Verses 192 bpm
1
&
2
&
3
&
4
&
5
&
6
&
7
&
8
&
Play
Pre-Chorus bend part 192 bpm
1
&
2
&
3
&
4
&
5
&
6
&
7
&
8
&
Play
Pre-Chorus part 2 and 3 192 bpm
1
&
2
&
3
&
4
&
5
&
6
&
7
&
8
&
Play
Chorus part 1 w/ singin 192 bpm
1
&
2
&
3
&
4
&
5
&
6
&
7
&
8
&
Play
Chorus part 2 192 bpm
1
&
2
&
3
&
4
&
5
&
6
&
7
&
8
&
9
&
10
&
11
&
12
&
13
&
14
&
15
&
16
&
Play
Outro 192 bpm
1
&
2
&
3
&
4
&
5
&
6
&
7
&
8
&
Play
Are these strumming patterns correct? Yes No
High School Roaches - Bass Drum Of Death
           GB City - 2011
_____________________________________________________________________________________

Capo on 1st, or tune to F Standard for accuracy. Can totally be played without capo, just no open F note.

All tabs in the song are in relation to the capo, so 0 = 1st fret of E standard, and so on.

    F     D#    A#    D
e|--0-----10----5-----9---|
B|--0-----10----5-----9---|  Verses
G|--1-----11----6-----10--|
D|--2-----12----7-----11--|
A|--2-----12----7-----11--|
E|--0-----10----5-----9---|

    G     D#    D     C     F
e|------------------------------|
B|------------------------------|  Chorus'
G|--11----------------------9---| 
D|--11----12----11----9-----9---|
A|--9-----12----11----9-----7---|
E|--x-----10----9-----7-----x---|
_____________________________________________________________________________________

[Intro]

F     D# 
F     D# 
F     D# 
F     D# 

[Verse 1]

F     D# 
F     D# 
F     D# 
F     D# 

  F          D#       F             D#
I ran out of time, my hand gave you mine
    A#             D        A#         D
You said you're to go, I'd write you a song
   F         D#        F         D#  
Before I was fine, now I'm in my mind
     A#         D           A#         D
What can you do wrong? What can you do wrong?

[Pre-Chorus 1]

Guitar 1 and 2 (remember: capo/up tuning)
   F
e|----------------------------------------------------------------|
B|----------------------------------------------------------------|
G|-9-------9---9-------9---9---9---9b^-----9b^-----9b^-----9b^----|
D|-x-------x---x-------x---x---x---x-------x-------x-------x------|  x4
A|-7-------7---7-------7---7---7---7b^-----7b^-----7b^-----7b^----|
E|-0-------0---0-------0---0---0---0-------0-------0-------0------|

   F                               D#              G
e|----------------------------------------------------------------|
B|----------------------------------------------------------------|
G|-9-------9---9-------9---9---9---7---7---7---7---11--11--11--11-| 
D|-x-------x---x-------x---x---x---x---x---x---x---x---x---x---x--|  x3
A|-7-------7---7-------7---7---7---5---5---5---5---9---9---9---9--|
E|-x-------x---x-------x---x---x---x---x---x---x---x---x---x---x--|

   F
e|----------------------------------------------------------------|
B|----------------------------------------------------------------|
G|-9-------9---9-------9---9---9---9---9---9---9---9---9---9---9--|
D|-x-------x---x-------x---x---x---x---x---x---x---x---x---x---x--|  x1
A|-7-------7---7-------7---7---7---7---7---7---7---7---7---7---7--|
E|-x-------x---x-------x---x---x---x---x---x---x---x---x---x---x--| 

[Chorus]

G                          D#   D   C       F
   Feelin' it with me, Shawnee (OoooOooOoooo)
G                          D#   D   C       F
   Feelin' it with me, Shawnee (OoooOooOoooo)
G                          D#   D   C       F
   Gimme back my high school roache-----ss
G                          D#   D   C       F
   Gimme back my high school roache-----ss

Guitar 1 and 2
   A#                              G#
e|----------------------------------------------------------------|
B|----------------------------------------------------------------|
G|----------------------------------------------------------------| 
D|-7-------7---7-------7---7---7---5-------5---5-------5---5---5--|
A|-7-------7---7-------7---7---7---5-------5---5-------5---5---5--|
E|-5-------5---5-------5---5---5---3-------3---3-------3---3---3--|
 
   A#                              G#              A#      G#
e|----------------------------------------------------------------|
B|----------------------------------------------------------------|
G|----------------------------------------------------------------| 
D|-7-------7---7-------7---7---7---5---5---5---5---7-------5------|
A|-7-------7---7-------7---7---7---5---5---5---5---7-------5------|
E|-5-------5---5-------5---5---5---3---3---3---3---5-------3------|

[Verse 2]

F     D# 
F     D# 
F     D# 
F     D# 

    F          D#       F            D#
And I left for more, I answered your door
     A#            D           A#          D
Your enemy speaked twice, these bottles to hide
   F         D#        F         D#
Before I was fine, now I'm in my mind
     A#        D          A#        D
What can I do wrong? What can I do wrong?

Guitar 1
   F
e|----------------------------------------------------------------|
B|----------------------------------------------------------------|
G|-9-------9---9-------9---9---9---9b^-----9b^-----9b^-----9b^----|
D|-x-------x---x-------x---x---x---x-------x-------x-------x------|  x4
A|-7-------7---7-------7---7---7---7b^-----7b^-----7b^-----7b^----|
E|-0-------0---0-------0---0---0---0-------0-------0-------0------|

Guitar 2
   F                               D#              G
e|----------------------------------------------------------------|
B|----------------------------------------------------------------|
G|-9-------9---9-------9---9---9---7---7---7---7---11--11--11--11-| 
D|-x-------x---x-------x---x---x---x---x---x---x---x---x---x---x--|  x4
A|-7-------7---7-------7---7---7---5---5---5---5---9---9---9---9--|
E|-x-------x---x-------x---x---x---x---x---x---x---x---x---x---x--|

Guitar 1 and 2
   F                               D#              G
e|----------------------------------------------------------------|
B|----------------------------------------------------------------|
G|-9-------9---9-------9---9---9---7---7---7---7---11--11--11--11-| 
D|-x-------x---x-------x---x---x---x---x---x---x---x---x---x---x--|  x3
A|-7-------7---7-------7---7---7---5---5---5---5---9---9---9---9--|
E|-x-------x---x-------x---x---x---x---x---x---x---x---x---x---x--|

   F
e|----------------------------------------------------------------|
B|----------------------------------------------------------------|
G|-9-------9---9-------9---9---9---9---9---9---9---9---9---9---9--|
D|-x-------x---x-------x---x---x---x---x---x---x---x---x---x---x--|  x1
A|-7-------7---7-------7---7---7---7---7---7---7---7---7---7---7--|
E|-x-------x---x-------x---x---x---x---x---x---x---x---x---x---x--| 

[Chorus]

G                          D#   D   C       F
   Feelin' it with me, Shawnee (OoooOooOoooo)
G                          D#   D   C       F
   Feelin' it with me, Shawnee (OoooOooOoooo)
G                          D#   D   C       F
   Gimme back my high school roache-----ss
G                          D#   D   C       F
   Gimme back my high school roache-----ss

Guitar 1 and 2
   A#                              G#
e|----------------------------------------------------------------|
B|----------------------------------------------------------------|
G|----------------------------------------------------------------| 
D|-7-------7---7-------7---7---7---5-------5---5-------5---5---5--|
A|-7-------7---7-------7---7---7---5-------5---5-------5---5---5--|
E|-5-------5---5-------5---5---5---3-------3---3-------3---3---3--|
 
   A#                              G#              A#      G#
e|----------------------------------------------------------------|
B|----------------------------------------------------------------|
G|----------------------------------------------------------------| 
D|-7-------7---7-------7---7---7---5---5---5---5---7-------5------|
A|-7-------7---7-------7---7---7---5---5---5---5---7-------5------|
E|-5-------5---5-------5---5---5---3---3---3---3---5-------3------|

[Outro]

Guitar 1 and 2
   F                               D#              G
e|----------------------------------------------------------------|
B|----------------------------------------------------------------|
G|-9-------9-------9b^-----9b^-----7-------7-------11b^----11b^---| 
D|-x-------x-------x-------x-------x-------x-------x-------x------|  x4
A|-7-------7-------7b^-----7b^-----5-------5-------9b^-----9b^----|
E|-x-------x-------x-------x-------x-------x-------x-------x------|

   F
e|-0~-------------|
B|-0~-------------|
G|-1~-------------| end
D|-2~-------------| 
A|-2~-------------|
E|-0~-------------|
Suggest correction
Give kudos to tab author, rate the tab!
1 2 3 4 5
comments
print report bad tab
guest
You may want to rate the tab now too:
select rating
Wanna post a correction for this tab? Suggest correction