Oops, an error
Loading. Please wait.

I Wanna Be Forgotten Bass Tab

61 views 1 this week
no commentswrite comment
1 2 3 4 5
3 more votes to show rating
add to favorites
launch autoscroll
font size
0
reset
guitar tuner
Autoscroll
slow
fast
+/-
esc
set tempo
stop
Help us to improve Ultimate-Guitar.com Take our survey!
×
[Intro]

G|--------------|
D|--------------|
A|-7------------|
E|--------------|

G|--------------------------------------|-------------------------------------|
D|--------------------------------------|-------------------------------------|
A|--3--3-3--------7-7-7-7-7-7-7-7-7-7-7-|-3--3-3--------7-7-7-7-7-7-7-7-7-7-7-|
E|---------3--3-3-----------------------|--------3--3-3-----------------------|


[Verse]

G|--------------------------------------|-------------------------------------|
D|--------------------------------------|-------------------------------------|
A|--3--3-3--------7-7-7-7-7-7-7-7-7-7-7-|-3--3-3--------7-7-7-7-7-7-7-7-7-7-7-|
E|---------3--3-3-----------------------|--------3--3-3-----------------------|

G|--------------------------------------|-------------------------------------|
D|--------------------------------------|-------------------------------------|
A|--3--3-3--------7-7-7-7-7-7-7-7-7-7-7-|-3--3-3--------7-7-7-7-7-7-7-7-7-7-7-|
E|---------3--3-3-----------------------|--------3--3-3-----------------------|

G|--------------------------------------|
D|--------------------------------------|
A|--3--3-3--------7-7-7-7-7-7-7-7-7-7-7-|
E|---------3--3-3-----------------------|

[Chorus]

G|----------------------------------------------------------------|
D|----------------------------------------------------------------|
A|----------------------------------------------------------------|
E|-8-8-8-8-8-8-8-3-3-3-3-3-3-3-10-10-10-10-10-10-10-5-5-5-5-5-5-5-|

G|----------------------------------------------------------------|
D|----------------------------------------------------------------|
A|----------------------------------------------------------------|
E|-8-8-8-8-8-8-8-3-3-3-3-3-3-3-10-10-10-10-10-10-10-5-5-5-5-5-5-5-|

G|----------------------------------------------------------------|
D|----------------------------------------------------------------|
A|----------------------------------------------------------------|
E|-8-8-8-8-8-8-8-3-3-3-3-3-3-3-10-10-10-10-10-10-10-5-5-5-5-5-5-5-|

G|----------------------------------------------------------------|
D|----------------------------------------------------------------|
A|----------------------------------------------------------------|
E|-8-8-8-8-8-8-8-3-3-3-3-3-3-3-10-10-10-10-10-10-10-5-5-5-5-5-5-5-|


Post Chorus
G|--------------------------------------|-------------------------------------|
D|--------------------------------------|-------------------------------------|
A|--3--3-3--------7-7-7-7-7-7-7-7-7-7-7-|-3--3-3--------7-7-7-7-7-7-7-7-7-7-7-|
E|---------3--3-3-----------------------|--------3--3-3-----------------------|

G|--------------------------------------|-------------------------------------|
D|--------------------------------------|-------------------------------------|
A|--3--3-3--------7-7-7-7-7-7-7-7-7-7-7-|-3--3-3--------7-7-7-7-7-7-7-7-7-7-7-|
E|---------3--3-3-----------------------|--------3--3-3-----------------------|

Bass Solo

G|----------------------------------------------------------------------|
D|---------------------------5-7-7b-5---------------------------5-7b-5--|
A|-7-5-7-5-7-5-7-5-7-5-7-5-7----------7-5-7-5-7-5-7-5-7-5-7-5-7---------|
E|----------------------------------------------------------------------|

[Verse]

G|--------------------------------------|-------------------------------------|
D|--------------------------------------|-------------------------------------|
A|--3--3-3--------7-7-7-7-7-7-7-7-7-7-7-|-3--3-3--------7-7-7-7-7-7-7-7-7-7-7-|
E|---------3--3-3-----------------------|--------3--3-3-----------------------|

G|--------------------------------------|-------------------------------------|
D|--------------------------------------|-------------------------------------|
A|--3--3-3--------7-7-7-7-7-7-7-7-7-7-7-|-3--3-3--------7-7-7-7-7-7-7-7-7-7-7-|
E|---------3--3-3-----------------------|--------3--3-3-----------------------|

G|--------------------------------------|
D|--------------------------------------|
A|--3--3-3--------7-7-7-7-7-7-7-7-7-7-7-|
E|---------3--3-3-----------------------|

[Chorus]

G|----------------------------------------------------------------|
D|----------------------------------------------------------------|
A|----------------------------------------------------------------|
E|-8-8-8-8-8-8-8-3-3-3-3-3-3-3-10-10-10-10-10-10-10-5-5-5-5-5-5-5-|

G|----------------------------------------------------------------|
D|----------------------------------------------------------------|
A|----------------------------------------------------------------|
E|-8-8-8-8-8-8-8-3-3-3-3-3-3-3-10-10-10-10-10-10-10-5-5-5-5-5-5-5-|

G|----------------------------------------------------------------|
D|----------------------------------------------------------------|
A|----------------------------------------------------------------|
E|-8-8-8-8-8-8-8-3-3-3-3-3-3-3-10-10-10-10-10-10-10-5-5-5-5-5-5-5-|

G|----------------------------------------------------------------|
D|----------------------------------------------------------------|
A|----------------------------------------------------------------|
E|-8-8-8-8-8-8-8-3-3-3-3-3-3-3-10-10-10-10-10-10-10-5-5-5-5-5-5-5-|

Post Chorus

G|--------------------------------------|-------------------------------------|
D|--------------------------------------|-------------------------------------|
A|--3--3-3--------7-7-7-7-7-7-7-7-7-7-7-|-3--3-3--------7-7-7-7-7-7-7-7-7-7-7-|
E|---------3--3-3-----------------------|--------3--3-3-----------------------|

G|--------------------------------------|-------------------------------------|
D|--------------------------------------|-------------------------------------|
A|--3--3-3--------7-7-7-7-7-7-7-7-7-7-7-|-3--3-3--------7-7-7-7-7-7-7-7-7-7-7-|
E|---------3--3-3-----------------------|--------3--3-3-----------------------|

[Outro]

G|-----------------------------------------------------------------------|
D|---------------------------5-7-7b-5---------------------------5-7b-5---|
A|-7-5-7-5-7-5-7-5-7-5-7-5-7----------7-5-7-5-7-5-7-5-7-5-7-5-7--------7-|
E|-----------------------------------------------------------------------|
 
| b   Bend
Suggest correction
Give kudos to tab author, rate the tab!
1 2 3 4 5
comments
print report bad tab
guest
You may want to rate the tab now too:
select rating
Wanna post a correction for this tab? Suggest correction