Oops, an error
Loading. Please wait.

Leaves Chords

13 views 3 this week
no commentswrite comment
1 2 3 4 5
3 more votes to show rating
add to favorites
launch autoscroll
font size
0
reset
transpose
0
reset
display chords
guitar tuner
Autoscroll
slow
fast
+/-
esc
set tempo
stop
Help us to improve Ultimate-Guitar.com Take our survey!
×
Author
Difficulty
About this tab version
More accurate and better organized (for the most part) than the other, added lyrics as well. Was this info helpful? Yes No
Strumming
whole damn song 190 bpm
1
&
2
&
3
&
4
&
5
&
6
&
7
&
8
&
Play
Is this strumming pattern correct? Yes No
Leaves - Bass Drum Of Death
      GB City - 2011
_________________________________________________________________

    D     C     A     F
e|--------------------------|
B|--------------------------|
G|--------------------------|
D|--12----10----7-----15----|
A|--12----10----7-----15----|
E|--10----8-----5-----13----|
_________________________________________________________________

[Intro]
D

[Verse]
D                                                     
The leaves won't speak to me, I don't want to be alone

   (alone~~~)
e|-------------------------------------------------------------------|
B|-------------------------------------------------------------------|
G|------------------12--12--10--10-----------------------------------|
D|--12--12--------------------------12--12--12--12--12--12--12--12---|
A|----------10--10------------------12--12--12--12--12--12--12--12---|
E|----------------------------------10--10--10--10--10--10--10--10---|

D
The trees won't come around, I don't want to be alone

   (alone~~~)
e|-------------------------------------------------------------------|
B|-------------------------------------------------------------------|
G|------------------12--12--10--10-----------------------------------|
D|--12--12--------------------------12--12--12--12--12--12--12--12---|
A|----------10--10------------------12--12--12--12--12--12--12--12---|
E|----------------------------------10--10--10--10--10--10--10--10---|

[Chorus]
   C                 D
To keep from falling deep
   C            D
I went so far away
    C                       D
And you take the sun out of daylight
           A        F       D
All of the feelings stay at home

[Verse]
D                                                     
The leaves won't speak to me, I don't want to be alone

   (alone~~~)
e|-------------------------------------------------------------------|
B|-------------------------------------------------------------------|
G|------------------12--12--10--10-----------------------------------|
D|--12--12--------------------------12--12--12--12--12--12--12--12---|
A|----------10--10------------------12--12--12--12--12--12--12--12---|
E|----------------------------------10--10--10--10--10--10--10--10---|

D
The trees won't come around, I don't want to be alone

   (alone~~~)
e|-------------------------------------------------------------------|
B|-------------------------------------------------------------------|
G|------------------12--12--10--10-----------------------------------|
D|--12--12--------------------------12--12--12--12--12--12--12--12---|
A|----------10--10------------------12--12--12--12--12--12--12--12---|
E|----------------------------------10--10--10--10--10--10--10--10---|

[Chorus]
   C                 D
To keep from falling deep
   C            D
I went so far away
    C                       D
And you take the sun out of daylight
           A        F       D
All of the feelings stay at home

[Bridge]
                    I    went    so    far    away     
e|-------------------------------------------------------------------|
B|--8b--8b--8b--8b--8b--8b--8b--8b--8b--8b--8b--8b--8b--8b--8b--^----|
G|-------------------------------------------------------------------|
D|-------------------------------------------------------------------|
A|-------------------------------------------------------------------|
E|-------------------------------------------------------------------|

                    I    went    so    far    away     
e|-------------------------------------------------------------------|
B|--8b--8b--8b--8b--8b--8b--8b--8b--8b--8b--8b--8b--8b--8b--8b--^----|
G|-------------------------------------------------------------------|
D|-------------------------------------------------------------------|
A|-------------------------------------------------------------------|
E|-------------------------------------------------------------------|

                    I    went    so    far    away     
e|-------------------------------------------------------------------|
B|--8b--8b--8b--8b--8b--8b--8b--8b--8b--8b--8b--8b--8b--8b--8b--^----|
G|-------------------------------------------------------------------|
D|-------------------------------------------------------------------|
A|-------------------------------------------------------------------|
E|-------------------------------------------------------------------|

                    I    went    so    far, but you did as well   
e|-------------------------------------------------------------------|
B|--10b-10b-10b-10b-10b-10b-10b-10b-10b-10b-10b-10b-10b-10b-10b-10b--|
G|-------------------------------------------------------------------|
D|-------------------------------------------------------------------|
A|-------------------------------------------------------------------|
E|-------------------------------------------------------------------|

[Verse]
D                                                     
The leaves won't speak to me, I don't want to be alone

   (alone~~~)
e|-------------------------------------------------------------------|
B|-------------------------------------------------------------------|
G|------------------12--12--10--10-----------------------------------|
D|--12--12--------------------------12--12--12--12--12--12--12--12---|
A|----------10--10------------------12--12--12--12--12--12--12--12---|
E|----------------------------------10--10--10--10--10--10--10--10---|

D
The trees won't come around, I don't want to be alone

   (alone~~~)
e|-------------------------------------------------------------------|
B|-------------------------------------------------------------------|
G|------------------12--12--10--10-----------------------------------|
D|--12--12--------------------------12--12--12--12--12--12--12--12---|
A|----------10--10------------------12--12--12--12--12--12--12--12---|
E|----------------------------------10--10--10--10--10--10--10--10---|

[Chorus]
   C                 D
To keep from falling deep
   C            D
I went so far away
    C                       D
And you take the sun out of daylight
           A        F       D
All of the feelings stay at home

[Bridge]
                    I    went    so    far    away     
e|-------------------------------------------------------------------|
B|--8b--8b--8b--8b--8b--8b--8b--8b--8b--8b--8b--8b--8b--8b--8b--^----|
G|-------------------------------------------------------------------|
D|-------------------------------------------------------------------|
A|-------------------------------------------------------------------|
E|-------------------------------------------------------------------|

                    I    went    so    far    away     
e|-------------------------------------------------------------------|
B|--8b--8b--8b--8b--8b--8b--8b--8b--8b--8b--8b--8b--8b--8b--8b--^----|
G|-------------------------------------------------------------------|
D|-------------------------------------------------------------------|
A|-------------------------------------------------------------------|
E|-------------------------------------------------------------------|

                    I    went    so    far    away     
e|-------------------------------------------------------------------|
B|--8b--8b--8b--8b--8b--8b--8b--8b--8b--8b--8b--8b--8b--8b--8b--^----|
G|-------------------------------------------------------------------|
D|-------------------------------------------------------------------|
A|-------------------------------------------------------------------|
E|-------------------------------------------------------------------|

                    I    went    so    far, but you did it as well   
e|-------------------------------------------------------------------|
B|--10b-10b-10b-10b-10b-10b-10b-10b-10b-10b-10b-10b-10b-10b-10b-10b--|
G|-------------------------------------------------------------------|
D|-------------------------------------------------------------------|
A|-------------------------------------------------------------------|
E|-------------------------------------------------------------------|

[Outro]
D                D   C   D   C     D   F   F
D                D   C   D   C     D   F   F
D                D   C   D   C     D   F   F
(OoooOoooooOoooo)             I've got a friend
D                D   C   D   C     D   F   F
(OoooOoooooOoooo)             I've got a friend
D                D   C   D   C     D   F   F
(OoooOoooooOoooo)             I've got a friend
D                D   C   D   C     D   F   F
(OoooOoooooOoooo)             I've got a friend
D                D   C   D   C     D   F   F
(OoooOoooooOoooo)             I've got a friend
D                D   C   D   C     D   F   F
(OoooOoooooOoooo)             I've got a friend
D                D   C   D   C     D   F   F
(OoooOoooooOoooo)             I've got a friend
D                D   C   D   C     D   F   F
(OoooOoooooOoooo)
D
Suggest correction
Give kudos to tab author, rate the tab!
1 2 3 4 5
comments
print report bad tab
guest
You may want to rate the tab now too:
select rating
Wanna post a correction for this tab? Suggest correction