Oops, an error
Loading. Please wait.

Leaves Tab

55 views 6 this week
no commentswrite comment
1 2 3 4 5
3 more votes to show rating
add to favorites
launch autoscroll
font size
0
reset
how to read this tab
guitar tuner
Autoscroll
slow
fast
+/-
esc
set tempo
stop
Help us to improve Ultimate-Guitar.com Take our survey!
×
[Intro]

e|-------------------------------------------------|
B|-------------------------------------------------|
G|-7-7-7-7-7-7-7-7-7-7-7-7-7-7-7-7-7-7-7-7-7-7-7---|
D|-7-7-7-7-7-7-7-7-7-7-7-7-7-7-7-7-7-7-7-7-7-7-7---|
A|-5-5-5-5-5-5-5-5-5-5-5-5-5-5-5-5-5-5-5-5-5-5-5---|
E|-------------------------------------------------|

[Verse]

e|---------------------------------------------------------------------------|
B|-------------------------------------------8-8-6-6-------------------------|
G|--7-7-7-7-7-7-7-7-7-7-7-7-7-7-7-7--7-7-------------7-7-7-7-7-7-7-----------|
D|--7-7-7-7-7-7-7-7-7-7-7-7-7-7-7-7------5-5---------7-7-7-7-7-7-7-----------|
A|--5-5-5-5-5-5-5-5-5-5-5-5-5-5-5-5------------------5-5-5-5-5-5-5-----------|
E|---------------------------------------------------------------------------|

e|---------------------------------------------------------------------------|
B|-------------------------------------------8-8-6-6-------------------------|
G|--7-7-7-7-7-7-7-7-7-7-7-7-7-7-7-7--7-7-------------7-7-7-7-7-7-7-----------|
D|--7-7-7-7-7-7-7-7-7-7-7-7-7-7-7-7------5-5---------7-7-7-7-7-7-7-----------|
A|--5-5-5-5-5-5-5-5-5-5-5-5-5-5-5-5------------------5-5-5-5-5-5-5-----------|
E|---------------------------------------------------------------------------|

[Chorus]

e|---------------------------------------------------------------------------|
B|---------------------------------------------------------------------------|
G|-5-5-5-5-5-5-5-5-5-7-7-7-7-7-7-7-7-5-5-5-5-5-5-5-5-7-7-7-7-7-7-7-7---------|
D|-5-5-5-5-5-5-5-5-5-7-7-7-7-7-7-7-7-5-5-5-5-5-5-5-5-7-7-7-7-7-7-7-7---------|
A|-3-3-3-3-3-3-3-3-3-5-5-5-5-5-5-5-5-3-3-3-3-3-3-3-3-5-5-5-5-5-5-5-5---------|
E|---------------------------------------------------------------------------|

e|----------------------------------------------------------------------------------|
B|----------------------------------------------------------------------------------|
G|-5-5-5-5-5-5-5-5-5-7-7-7-7-7-7-7-7---------------10-10-10-10-10-10-10-7-7-7-7-7-7-|
D|-5-5-5-5-5-5-5-5-5-7-7-7-7-7-7-7-7-7-7-7-7-7-7-7-10-10-10-10-10-10-10-7-7-7-7-7-7-|
A|-3-3-3-3-3-3-3-3-3-5-5-5-5-5-5-5-5-7-7-7-7-7-7-7-8--8--8--8--8--8--8--5-5-5-5-5-5-|
E|-----------------------------------5-5-5-5-5-5-5----------------------------------|

[Verse]

e|---------------------------------------------------------------------------|
B|-------------------------------------------8-8-6-6-------------------------|
G|--7-7-7-7-7-7-7-7-7-7-7-7-7-7-7-7--7-7-------------7-7-7-7-7-7-7-----------|
D|--7-7-7-7-7-7-7-7-7-7-7-7-7-7-7-7------5-5---------7-7-7-7-7-7-7-----------|
A|--5-5-5-5-5-5-5-5-5-5-5-5-5-5-5-5------------------5-5-5-5-5-5-5-----------|
E|---------------------------------------------------------------------------|

e|---------------------------------------------------------------------------|
B|-------------------------------------------8-8-6-6-------------------------|
G|--7-7-7-7-7-7-7-7-7-7-7-7-7-7-7-7--7-7-------------7-7-7-7-7-7-7-----------|
D|--7-7-7-7-7-7-7-7-7-7-7-7-7-7-7-7------5-5---------7-7-7-7-7-7-7-----------|
A|--5-5-5-5-5-5-5-5-5-5-5-5-5-5-5-5------------------5-5-5-5-5-5-5-----------|
E|---------------------------------------------------------------------------|

[Chorus]

e|---------------------------------------------------------------------------|
B|---------------------------------------------------------------------------|
G|-5-5-5-5-5-5-5-5-5-7-7-7-7-7-7-7-7-5-5-5-5-5-5-5-5-7-7-7-7-7-7-7-7---------|
D|-5-5-5-5-5-5-5-5-5-7-7-7-7-7-7-7-7-5-5-5-5-5-5-5-5-7-7-7-7-7-7-7-7---------|
A|-3-3-3-3-3-3-3-3-3-5-5-5-5-5-5-5-5-3-3-3-3-3-3-3-3-5-5-5-5-5-5-5-5---------|
E|---------------------------------------------------------------------------|

e|----------------------------------------------------------------------------------|
B|----------------------------------------------------------------------------------|
G|-5-5-5-5-5-5-5-5-5-7-7-7-7-7-7-7-7---------------10-10-10-10-10-10-10-7-7-7-7-7-7-|
D|-5-5-5-5-5-5-5-5-5-7-7-7-7-7-7-7-7-7-7-7-7-7-7-7-10-10-10-10-10-10-10-7-7-7-7-7-7-|
A|-3-3-3-3-3-3-3-3-3-5-5-5-5-5-5-5-5-7-7-7-7-7-7-7-8--8--8--8--8--8--8--5-5-5-5-5-5-|
E|-----------------------------------5-5-5-5-5-5-5----------------------------------|

[Bridge]

e|-----------------------------------------------------------------------------|
B|-8b-8b-8b-8b-8b-8b-8b-8b-8b-8b-8b-8b-8b-8b-8b-8b-8b-8b-8b-8b-8b-8b-8b-8b-8b--|
G|-----------------------------------------------------------------------------|
D|-----------------------------------------------------------------------------|
A|-----------------------------------------------------------------------------|
E|-----------------------------------------------------------------------------|

e|-----------------------------------------------------------------------------|
B|-8b-8b-8b-8b-8b-8b-8b-8b-8b-8b-8b-8b-8b-8b-8b-8b-8b-8b-8b-8b-8b-8b-8b-8b-8b--|
G|-----------------------------------------------------------------------------|
D|-----------------------------------------------------------------------------|
A|-----------------------------------------------------------------------------|
E|-----------------------------------------------------------------------------|

e|-----------------------------------------------------------------------------|
B|-10b-10b-10b-10b-10b-10b-10b-10b-10b-10b-10b-10b-10b-10b-10b-10b-10b-10b-10b-|
G|-----------------------------------------------------------------------------|
D|-----------------------------------------------------------------------------|
A|-----------------------------------------------------------------------------|
E|-----------------------------------------------------------------------------|

[Verse]

e|---------------------------------------------------------------------------|
B|-------------------------------------------8-8-6-6-------------------------|
G|--7-7-7-7-7-7-7-7-7-7-7-7-7-7-7-7--7-7-------------7-7-7-7-7-7-7-----------|
D|--7-7-7-7-7-7-7-7-7-7-7-7-7-7-7-7------5-5---------7-7-7-7-7-7-7-----------|
A|--5-5-5-5-5-5-5-5-5-5-5-5-5-5-5-5------------------5-5-5-5-5-5-5-----------|
E|---------------------------------------------------------------------------|

e|---------------------------------------------------------------------------|
B|-------------------------------------------8-8-6-6-------------------------|
G|--7-7-7-7-7-7-7-7-7-7-7-7-7-7-7-7--7-7-------------7-7-7-7-7-7-7-----------|
D|--7-7-7-7-7-7-7-7-7-7-7-7-7-7-7-7------5-5---------7-7-7-7-7-7-7-----------|
A|--5-5-5-5-5-5-5-5-5-5-5-5-5-5-5-5------------------5-5-5-5-5-5-5-----------|
E|---------------------------------------------------------------------------|

e|---------------------------------------------------------------------------|
B|-------------------------------------------8-8-6-6-------------------------|
G|--7-7-7-7-7-7-7-7-7-7-7-7-7-7-7-7--7-7-------------7-7-7-7-7-7-7-----------|
D|--7-7-7-7-7-7-7-7-7-7-7-7-7-7-7-7------5-5---------7-7-7-7-7-7-7-----------|
A|--5-5-5-5-5-5-5-5-5-5-5-5-5-5-5-5------------------5-5-5-5-5-5-5-----------|
E|---------------------------------------------------------------------------|

[Chorus]

e|---------------------------------------------------------------------------|
B|---------------------------------------------------------------------------|
G|-5-5-5-5-5-5-5-5-5-7-7-7-7-7-7-7-7-5-5-5-5-5-5-5-5-7-7-7-7-7-7-7-7---------|
D|-5-5-5-5-5-5-5-5-5-7-7-7-7-7-7-7-7-5-5-5-5-5-5-5-5-7-7-7-7-7-7-7-7---------|
A|-3-3-3-3-3-3-3-3-3-5-5-5-5-5-5-5-5-3-3-3-3-3-3-3-3-5-5-5-5-5-5-5-5---------|
E|---------------------------------------------------------------------------|

e|----------------------------------------------------------------------------------|
B|----------------------------------------------------------------------------------|
G|-5-5-5-5-5-5-5-5-5-7-7-7-7-7-7-7-7---------------10-10-10-10-10-10-10-7-7-7-7-7-7-|
D|-5-5-5-5-5-5-5-5-5-7-7-7-7-7-7-7-7-7-7-7-7-7-7-7-10-10-10-10-10-10-10-7-7-7-7-7-7-|
A|-3-3-3-3-3-3-3-3-3-5-5-5-5-5-5-5-5-7-7-7-7-7-7-7-8--8--8--8--8--8--8--5-5-5-5-5-5-|
E|-----------------------------------5-5-5-5-5-5-5----------------------------------|

[Bridge]

e|-----------------------------------------------------------------------------|
B|-8b-8b-8b-8b-8b-8b-8b-8b-8b-8b-8b-8b-8b-8b-8b-8b-8b-8b-8b-8b-8b-8b-8b-8b-8b--|
G|-----------------------------------------------------------------------------|
D|-----------------------------------------------------------------------------|
A|-----------------------------------------------------------------------------|
E|-----------------------------------------------------------------------------|

e|-----------------------------------------------------------------------------|
B|-8b-8b-8b-8b-8b-8b-8b-8b-8b-8b-8b-8b-8b-8b-8b-8b-8b-8b-8b-8b-8b-8b-8b-8b-8b--|
G|-----------------------------------------------------------------------------|
D|-----------------------------------------------------------------------------|
A|-----------------------------------------------------------------------------|
E|-----------------------------------------------------------------------------|

e|-----------------------------------------------------------------------------|
B|-10b-10b-10b-10b-10b-10b-10b-10b-10b-10b-10b-10b-10b-10b-10b-10b-10b-10b-10b-|
G|-----------------------------------------------------------------------------|
D|-----------------------------------------------------------------------------|
A|-----------------------------------------------------------------------------|
E|-----------------------------------------------------------------------------|

[Outro]

e|---------------------------------------------------------------------------|
B|---------------------------------------------------------------------------|
G|-7-7-7-7-7-7-7-7-7-7-5-7-5-7-10-10b-7-7-7-7-7-7-7-7-7-7-5-7-5-7-10-10b-----|
D|-7-7-7-7-7-7-7-7-7-7-5-7-5-7-10-10b-7-7-7-7-7-7-7-7-7-7-5-7-5-7-10-10b-----|
A|-5-5-5-5-5-5-5-5-5-5-3-5-3-5-8--8b--5-5-5-5-5-5-5-5-5-5-3-5-3-5-8--8b------|
E|---------------------------------------------------------------------------|

e|---------------------------------------------------------------------------|
B|---------------------------------------------------------------------------|
G|-7-7-7-7-7-7-7-7-7-7-5-7-5-7-10-10b-7-7-7-7-7-7-7-7-7-7-5-7-5-7-10-10b-----|
D|-7-7-7-7-7-7-7-7-7-7-5-7-5-7-10-10b-7-7-7-7-7-7-7-7-7-7-5-7-5-7-10-10b-----|
A|-5-5-5-5-5-5-5-5-5-5-3-5-3-5-8--8b--5-5-5-5-5-5-5-5-5-5-3-5-3-5-8--8b------|
E|---------------------------------------------------------------------------|

e|---------------------------------------------------------------------------|
B|---------------------------------------------------------------------------|
G|-7-7-7-7-7-7-7-7-7-7-5-7-5-7-10-10b-7-7-7-7-7-7-7-7-7-7-5-7-5-7-10-10b-----|
D|-7-7-7-7-7-7-7-7-7-7-5-7-5-7-10-10b-7-7-7-7-7-7-7-7-7-7-5-7-5-7-10-10b-----|
A|-5-5-5-5-5-5-5-5-5-5-3-5-3-5-8--8b--5-5-5-5-5-5-5-5-5-5-3-5-3-5-8--8b------|
E|---------------------------------------------------------------------------|

e|---------------------------------------------------------------------------|
B|---------------------------------------------------------------------------|
G|-7-7-7-7-7-7-7-7-7-7-5-7-5-7-10-10b-7-7-7-7-7-7-7-7-7-7-5-7-5-7-10-10b-----|
D|-7-7-7-7-7-7-7-7-7-7-5-7-5-7-10-10b-7-7-7-7-7-7-7-7-7-7-5-7-5-7-10-10b-----|
A|-5-5-5-5-5-5-5-5-5-5-3-5-3-5-8--8b--5-5-5-5-5-5-5-5-5-5-3-5-3-5-8--8b------|
E|---------------------------------------------------------------------------|

e|---------------------------------------------------------------------------|
B|---------------------------------------------------------------------------|
G|-7-7-7-7-7-7-7-7-7-7-5-7-5-7-10-10b-7-7-7-7-7-7-7-7-7-7-5-7-5-7-10-10b-----|
D|-7-7-7-7-7-7-7-7-7-7-5-7-5-7-10-10b-7-7-7-7-7-7-7-7-7-7-5-7-5-7-10-10b-----|
A|-5-5-5-5-5-5-5-5-5-5-3-5-3-5-8--8b--5-5-5-5-5-5-5-5-5-5-3-5-3-5-8--8b------|
E|---------------------------------------------------------------------------|

**********************

b - Bend
Suggest correction
Give kudos to tab author, rate the tab!
1 2 3 4 5
comments
print report bad tab
guest
You may want to rate the tab now too:
select rating
Wanna post a correction for this tab? Suggest correction