Oops, an error
Loading. Please wait.

Left For Dead Bass Tab

10 views 1 this week
no commentswrite comment
1 2 3 4 5
3 more votes to show rating
add to favorites
launch autoscroll
font size
0
reset
guitar tuner
Autoscroll
slow
fast
+/-
esc
set tempo
stop
Help us to improve Ultimate-Guitar.com Take our survey!
×
[Intro]

G|---------------------------------|
D|---------------------------------|
A|---------------------------------|
E|-5-----------------------5-------|

[Verse]

G|--------------------------------------------------|-----------------------------------------------------|
D|----------------------------------------------5-7-|------------------------------------------------5-7--|
A|----------------------------5-3---------3h5-7-----|------------------------------5-3---------3h5-7------|
E|-5-5-5-5-5-5-5-5-5-5-5-5--5-----5-3-3h5-----------|-5-5-5-5-5-5-5-5-5-5-5-5-5--5-----5-3-3h5------------|

G|--------------------------------------------------|-----------------------------------------------------|
D|----------------------------------------------5-7-|------------------------------------------------5-7--|
A|----------------------------5-3---------3h5-7-----|------------------------------5-3---------3h5-7------|
E|-5-5-5-5-5-5-5-5-5-5-5-5--5-----5-3-3h5-----------|-5-5-5-5-5-5-5-5-5-5-5-5-5--5-----5-3-3h5------------|

[Chorus]

G|----------------------------------------|---------------------------------------------|
D|----------------------------------------|---------------------------------------------|
A|---7--5-5---7--5-5---7--5-5-3-3-3-3-3-3-|---7--5-5---7--5-5---7-5-5--3-3-3-3-3-3-3-3--|
E|-5--------5--------5--------------------|-5--------5--------5-------------------------|

G|---------------------------------------|--------------------------------------------|
D|---------------------------------------|--------------------------------------------|
A|--------------------------------3------|-------------------------------------3------|
E|-5\------5\-------5\------3-2-1---4-5--|---5\--------5\--------5\------3-2-1---4-5--|

[Verse]

G|--------------------------------------------------|-----------------------------------------------------|
D|----------------------------------------------5-7-|------------------------------------------------5-7--|
A|----------------------------5-3---------3h5-7-----|------------------------------5-3---------3h5-7------|
E|-5-5-5-5-5-5-5-5-5-5-5-5--5-----5-3-3h5-----------|-5-5-5-5-5-5-5-5-5-5-5-5-5--5-----5-3-3h5------------|

G|--------------------------------------------------|-----------------------------------------------------|
D|----------------------------------------------5-7-|------------------------------------------------5-7--|
A|----------------------------5-3---------3h5-7-----|------------------------------5-3---------3h5-7------|
E|-5-5-5-5-5-5-5-5-5-5-5-5--5-----5-3-3h5-----------|-5-5-5-5-5-5-5-5-5-5-5-5-5--5-----5-3-3h5------------|

[Chorus]

G|----------------------------------------|---------------------------------------------|
D|----------------------------------------|---------------------------------------------|
A|---7--5-5---7--5-5---7--5-5-3-3-3-3-3-3-|---7--5-5---7--5-5---7-5-5--3-3-3-3-3-3-3-3--|
E|-5--------5--------5--------------------|-5--------5--------5-------------------------|

G|---------------------------------------|--------------------------------------------|
D|---------------------------------------|--------------------------------------------|
A|--------------------------------3------|-------------------------------------3------|
E|-5\------5\-------5\------3-2-1---4-5--|---5\--------5\--------5\------3-2-1---4-5--|

[Bridge]


G|---------------------------------|
D|---------------------------------|
A|---------------------------------|
E|-5-----------------------5-------|

G|---------------------------------|
D|---------------------------------|
A|---------------------------------|
E|-5-----------------------5-------|

G|---------------------------------|
D|---------------------------------|
A|---------------------------------|
E|-5-----------------------5-------|

G|---------------------------------|
D|---------------------------------|
A|---------------------------------|
E|-5-----------------------5-------|

G|---------------------------------|
D|---------------------------------|
A|---------------------------------|
E|-5-----------------------5-------|

[Outro]

G|----------------------------------------|---------------------------------------------|
D|----------------------------------------|---------------------------------------------|
A|---7--5-5---7--5-5---7--5-5-3-3-3-3-3-3-|---7--5-5---7--5-5---7-5-5--3-3-3-3-3-3-3-3--|
E|-5--------5--------5--------------------|-5--------5--------5-------------------------|

G|----------------------------|--------------------------|
D|------------------------5-7-|---------------------5-7--|
A|------5-3---------3h5-7-----|---5-3---------3h5-7------|
E|---5------5-3-3h5-----------|-5-----5-3-3h5------------|

G|----------------------------|---------------------------|
D|------------------------5-7-|---------------------5-7---|
A|------5-3---------3h5-7-----|---5-3---------3h5-7-------|
E|---5------5-3-3h5-----------|-5-----5-3-3h5-----------5-|

************************************

| h   Hammer-on

| /   Slide up
Suggest correction
Give kudos to tab author, rate the tab!
1 2 3 4 5
comments
print report bad tab
guest
You may want to rate the tab now too:
select rating
Wanna post a correction for this tab? Suggest correction