Oops, an error
Loading. Please wait.

Religious Girls Chords

28 views 3 this week
no commentswrite comment
1 2 3 4 5
3 more votes to show rating
add to favorites
launch autoscroll
font size
0
reset
transpose
0
reset
display chords
guitar tuner
Autoscroll
slow
fast
+/-
esc
set tempo
stop
Help us to improve Ultimate-Guitar.com Take our survey!
×
Author
Difficulty
About this tab version
First tab for this song, even though it's a pretty simple one. Was this info helpful? Yes No
Religious Girls - Bass Drum Of Death
          GB City - 2011
_______________________________________________________________

    A     D
e|--0-----2---|
B|--2-----3---|
G|--2-----2---|
D|--2-----0---|
A|--0-----x---|
E|--x-----x---|
_______________________________________________________________


[Verse 1]

 A                                                D
Away from the riot, I walked with you; hand in hand
           A                                                D
I saw you preaching outside, you started tales that never end

[Chorus]

A                                             D
Beast strays out, the beast strays out of my way
    A                                             D
The beast strays out, the beast strays out of my way
                  A
Oh-wah-ah  ah-ah-oohh
                  D
Oh-wah-ah  ah-ah-oohh
                  A
Oh-wah-ah  ah-ah-oohh
                  D
Oh-wah-ah  ah-ah-oohh

  A                   D                  A                   D
e|--------------------------------------|--------------------------------------|
B|--------------------------------------|--------------------------------------|
G|2-------2-------2p0-7-----5---5--5--4-|2-------2-------2p0-7-----5---5--5--4-|
D|--------------------------------------|--------------------------------------|
A|--------------------------------------|--------------------------------------|
E|--------------------------------------|--------------------------------------|

[Verse 2]

  A                           
I sat around, I thought I'd get to it
      D
We're living hand in hand and my palms won't do it
         A
Saw you preaching on my band and my palms start shaking
     D
Just stake out all your states, now my bomb will not take it

[Chorus]

A                                             D
Beast strays out, the beast strays out of my way
    A                                             D
The beast strays out, the beast strays out of my way
  A                   D                  A                   D
e|--------------------------------------|--------------------------------------|
B|--------------------------------------|--------------------------------------|
G|2-------2-------2p0-7-----5---5--5--4-|2-------2-------2p0-7-----5---5--5--4-|
D|--------------------------------------|--------------------------------------|
A|--------------------------------------|--------------------------------------|
E|--------------------------------------|--------------------------------------|

[Outro]

                  A
Oh-wah-ah  ah-ah-oohh
                  D
Oh-wah-ah  ah-ah-oohh
                  A
Oh-wah-ah  ah-ah-oohh
                  D
Oh-wah-ah  ah-ah-oohh
                  A
Oh-wah-ah  ah-ah-oohh
                  D
Oh-wah-ah  ah-ah-oohh
                  A
Oh-wah-ah  ah-ah-oohh
                  D
Oh-wah-ah  ah-ah-oohh

A
(let ring out, end)
Suggest correction
Give kudos to tab author, rate the tab!
1 2 3 4 5
comments
print report bad tab
guest
You may want to rate the tab now too:
select rating
Wanna post a correction for this tab? Suggest correction