Oops, an error
Loading. Please wait.

Way Out tab

version 2
version 2

Whole song

705 views 3 this week
no commentswrite comment
1 2 3 4 5
3 more votes to show rating
add to favorites
×
Save as Personal and add changes to this tab that will be seen only by you. Learn more ›
×
You can save this tab as Personal to edit and correct it or add notes. All changes will be seen only by you. Learn more »
launch autoscroll
font size
0
reset
how to read this tab
guitar tuner
edit
Autoscroll
slow
fast
+/-
esc
set tempo
stop
Hi, I'm posting the full tab of this song for those of you that may want to learn this by tab. Enjoy.

Intro:
e|--10--------5------10-------5------10-------5----5-5-5-5-7-|
B|----10-------5-------10------5-------10------5---6-6-6-6-8-|
G|10----10/-5---5/-10----10/-5--5/-10----10/-5--5--5-5-5-5-7-|
D|-----------------------------------------------------------|
A|-----------------------------------------------------------|
E|-----------------------------------------------------------|

then...

Rhythm: (Chorus as well for both guitars)
e|------------------------------------------------------------------------|
B|------------------------------------------------------------------------|
G|------------------------------------------------------------------------|
D|3-3-3-3/12-12-12-12/3-3-3-3/12-12-12-12/7-7-7-7/101010107-7-7-7/1010105-|
A|3-3-3-3/12-12-12-12/3-3-3-3/12-12-12-12/7-7-7-7/101010107-7-7-7/1010105-|
E|1-1-1-1/10-10-10-10/1-1-1-1/10-10-10-10/5-5-5-5/8-8-8-8/5-5-5-5/8-8-8-3-|

Lead:
e|-------------------------------------------------------------------------------------|
B|-------------------------------------------------------------------------------------|
G|-----12-----------12-----------------------------------------------------------------|
D|12-14--14-10/12-14--14-------------------------------------------------------------10|(Trempick)
A|----------------------12(tremolo-picked bending slightly up a fret then down to 10)--|
E|-------------------------------------------------------------------------------------|

e|----------------------------------------------------------------------------------------------------------------|
B|----------------------------------------------------------------------------------------------------------------|
G|-----12-----------12--------------------------------------------------------------------------------------------|
D|12-14--14-10/12-14--14------------------------------------------------------------------------------------------|
A|----------------------12(tremolo-picked bending slightly up a fret and back to 12 till verse starts)------------|
E|----------------------------------------------------------------------------------------------------------------|

Verse:
e|------------------------------------|
B|------------------------------------|
G|------------------------------------|
D|7-7-7-7-7-7-7-7-1010101012-12-12-12-|
A|7-7-7-7-7-7-7-7-1010101012-12-12-12-|
E|5-5-5-5-5-5-5-5-8-8-8-8-10-10-10-10-|

Bridge (intro):
e|--10--------5------10-------5------10-------5-----5-----7----|
B|----10-------5-------10------5-------10------5-----6-----8---|
G|10----10/-5---5/-10----10/-5--5/-10----10/-5--5/-5--5/-7--7--|
D|-------------------------------------------------------------|
A|-------------------------------------------------------------|
E|-------------------------------------------------------------|

e|--10--------5------10-------5------10-------5----5-5-5-5-7-|
B|----10-------5-------10------5-------10------5---6-6-6-6-8-|
G|10----10/-5---5/-10----10/-5--5/-10----10/-5--5--5-5-5-5-7-|
D|-----------------------------------------------------------|
A|-----------------------------------------------------------|
E|-----------------------------------------------------------|

Bridge (chorus):
e|------------|
B|4----(8)----|
G|7b8b7-5-----|
D|--------7-7-|
A|------------|
E|------------|

            
            
Suggest correction
Creating personal tab
Creating personal tab
You can edit any tab online and save it as your Personal.

You can edit, replace or remove any tab part or add personal notes – all changes will be seen only by you.

Personal tabs can be accessed anytime from any device, even offline.
Learn more »
Give kudos to tab author, rate the tab!
1 2 3 4 5
comments
print report bad tab
guest
You may want to rate the tab now too:
select rating
Wanna post a correction for this tab? Suggest correction