Oops, an error
Loading. Please wait.

White Fright bass

256 views 6 this week
no commentswrite comment
1 2 3 4 5
2 more votes to show rating
add to favorites
×
Save as Personal and add changes to this tab that will be seen only by you. Learn more ›
×
You can save this tab as Personal to edit and correct it or add notes. All changes will be seen only by you. Learn more »
launch autoscroll
font size
0
reset
guitar tuner
edit
Autoscroll
slow
fast
+/-
esc
set tempo
stop
Author
Difficulty
So it's my first tab, but I'm sure it's pretty correct, because of easiness of the song.




1.It's the main song's riff,

G:---------------- 
D:----------------
A:--77--22------22
E:----------33----

play it for 10 times then play

G:---------------- 
D:----------------
A:----------------
E:--5-5-5-0-------

for one time.

2.Play it triple 

G:---------------- 
D:----------------
A:--77--22------22
E:----------33----

then play it for one more time 

G:---------------- 
D:----------------
A:----------------
E:--5-5-5-0-------

Play it 8 times

G:---------------- 
D:----------------
A:--77--22------22
E:----------33----

then play this one once

G:---------------- 
D:----------------
A:----------------
E:--5-5-5-0-------

Play it 3 times 

G:---------------- 
D:----------------
A:--77--22------22
E:----------33----

then play it once 

G:---------------- 
D:----------------
A:----------------
E:--5-5-5-0-------

And a new one guys

G:----------------------------------------------------------
D:----------------------------------------------------------
A:------555-------------555-------------555-----------------
E:--666-----333-----666-----333-----666-----333-----77777777

After this piece you should play two first ones and I think you'll manage with this by yourselves. Goodluck guys

            
            
Suggest correction
Creating personal tab
Creating personal tab
You can edit any tab online and save it as your Personal.

You can edit, replace or remove any tab part or add personal notes – all changes will be seen only by you.

Personal tabs can be accessed anytime from any device, even offline.
Learn more »
Give kudos to tab author, rate the tab!
1 2 3 4 5
comments
print report bad tab
guest
You may want to rate the tab now too:
select rating
Wanna post a correction for this tab? Suggest correction