Oops, an error
Loading. Please wait.

Young Pros Bass Tab

19 views 1 this week
no commentswrite comment
1 2 3 4 5
3 more votes to show rating
add to favorites
launch autoscroll
font size
0
reset
guitar tuner
Autoscroll
slow
fast
+/-
esc
set tempo
stop
Help us to improve Ultimate-Guitar.com Take our survey!
×
[Verse]

G|---------------------------------------------------------------------------|
D|---------------------------------------------------------------------------|
A|-7-7-7-7---------7-7-7-7-------------------------7-7------7-7-7------------|
E|---------9-9-9-9---------9-9-9-9-5-5-7-7-5-5-7-7----3-5-3------------------|

G|---------------------------------------------------------------------------|
D|---------------------------------------------------------------------------|
A|-7-7-7-7---------7-7-7-7-------------------------7-7------7-7-7------------|
E|---------9-9-9-9---------9-9-9-9-5-5-7-7-5-5-7-7----3-5-3------------------|

[Pre-Chorus]

G|---------------------------------------------------------------------------|
D|---------------------------------------------------------------------------|
A|---------------------------------------------------------------------------|
E|-9-9-9-9-5-5-5-5-9-9-9-9-5-5-7-7-9-9-9-9-5-5-5-5-7-7-7-7-7-7-7-7-7---------|

CHORUS

G|----------------------------------------------------------------------------|
D|----------------------------------------------------------------------------|
A|-7-7-7-7---------7-7-7-7---------7-7-7-7------------------------------------|
E|---------9-9-9-9---------9-9-9-9---------9-9-9-9-7-7-7-7--------------------|

[Post Chorus]

G|---------------------------------------------------------------------------|
D|---------------------------------------------------------------------------|
A|-7-7-7-7---------7-7-7-7-------------------------7-7------7-7-7------------|
E|---------9-9-9-9---------9-9-9-9-5-5-7-7-5-5-7-7----3-5-3------------------|

[Verse]

G|---------------------------------------------------------------------------|
D|---------------------------------------------------------------------------|
A|-7-7-7-7---------7-7-7-7-------------------------7-7------7-7-7------------|
E|---------9-9-9-9---------9-9-9-9-5-5-7-7-5-5-7-7----3-5-3------------------|

G|---------------------------------------------------------------------------|
D|---------------------------------------------------------------------------|
A|-7-7-7-7---------7-7-7-7-------------------------7-7------7-7-7------------|
E|---------9-9-9-9---------9-9-9-9-5-5-7-7-5-5-7-7----3-5-3------------------|

[Pre-Chorus]

G|---------------------------------------------------------------------------|
D|---------------------------------------------------------------------------|
A|---------------------------------------------------------------------------|
E|-9-9-9-9-5-5-5-5-9-9-9-9-5-5-7-7-9-9-9-9-5-5-5-5-7-7-7-7-7-7-7-7-7---------|

CHORUS/OUTRO

G|-------------------------------------------------------------------------|
D|-------------------------------------------------------------------------|
A|-7-7-7-7---------7-7-7-7---------7-7-7-7---------7-7-7-7-----------------|
E|---------9-9-9-9---------9-9-9-9---------9-9-9-9---------9-9-9-9---------|

G|-------------------------------------------------------------------------|
D|-------------------------------------------------------------------------|
A|-7-7-7-7---------7-7-7-7---------7-7-7-7--------------------------7------|
E|---------9-9-9-9---------9-9-9-9---------9-9-9-9-7-7-7-7-7-7-7-7---------|
Suggest correction
Give kudos to tab author, rate the tab!
1 2 3 4 5
comments
print report bad tab
guest
You may want to rate the tab now too:
select rating
Wanna post a correction for this tab? Suggest correction