Oops, an error
Loading. Please wait.

Tattoo On My Brain Chords

175 views 18 this week
no commentswrite comment
1 2 3 4 5
2 more votes to show rating
add to favorites
launch autoscroll
font size
0
reset
transpose
0
reset
simplify chords
display chords
guitar tuner
Autoscroll
slow
fast
+/-
esc
set tempo
stop
Help us to improve Ultimate-Guitar.com Take our survey!
×
Author
Difficulty
Capo
novice
4th fret
Capo on 4th fret

Finger picking pattern for each chord

                 Am    
e|---------------------------------|
B|-----------1---------------1-----|
G|-------2-----2---------2-----2---|
D|-----2---------2-----2---------2-|
A|-0---------------0---------------|
E|---------------------------------|

                 F/C      
e|---------------------------------|
B|-----------1---------------1-----|
G|-------2-----2---------2-----2---|
D|-----3---------3-----3---------3-|
A|-3---------------3---------------|
E|---------------------------------|

                 C   
e|---------------------------------|
B|-----------1---------------1-----|
G|-------0-----0---------0-----0---|
D|-----2---------2-----2---------2-|
A|-3---------------3---------------|
E|---------------------------------|

                 G/B 
e|---------------------------------|
B|-----------1---------------1-----|
G|-------0-----0---------0-----0---|
D|-----0---------0-----0---------2-|
A|-2---------------2---------------|
E|---------------------------------|


[Intro]

                 Am    
e|---------------------------------|
B|-----------1---------------1-----|
G|-------2-----2---------2-----2---|
D|-----2---------2-----2---------2-|
A|-0---------------0---------------|
E|---------------------------------|(x2)


[Verse 1]

Am
Come back to me
         F/C 
And I'll run to you
          C       G/B  
No matter when or where
Am                         F/C
What I lose is all just to win with you
           C                   G/B 
Now that I know the meaning of being two
    Am                          F/C
The world is full with place so beautiful
   C                             G/B
If only we can share to make the puzzle whole
  Am    F/C    C     G/B
I swear,     I swear


[Chorus]

   Am                       F/C    
At first I had to ask twice for your name
    C                      G/B  
And now it's like a tattoo on my brain
   Am                       F/C    
At first I had to ask twice for your name
    C                      G/B  
And now it's like a tattoo on my brain

                 Am    
e|---------------------------------|
B|-----------1---------------1-----|
G|-------2-----2---------2-----2---|
D|-----2---------2-----2---------2-| 
A|-0---------------0---------------|
E|---------------------------------|(x4)


[Verse 2]

   Am                                 F/C  
So you have killed my thoughts that I hold for years
C                            G/B
Never felt dependent it's my greatest fear
Am                        F/C                    
Fell into the trap that I always march
       C                           G/B      
You're calling into questions what I'm leaving for

  Am    F/C    C     G/B
I swear,     I swear
  Am    F/C    C     G/B
I swear,     I swear


[Chorus]

   Am                       F/C    
At first I had to ask twice for your name
    C                      G/B  
And now it's like a tattoo on my brain
   Am                       F/C    
At first I had to ask twice for your name
    C                      G/B  
And now it's like a tattoo on my brain
   Am                            F/C
Oh I was drunk and drugged in my last night's dream
  C                    G/B    
I woke up sweating and wondering
    Am                  F/C
Can all is disappear so suddenly
C                             G/B
How it feels weird to have it done to me

  Am    F/C    C     G/B
I swear,     I swear
  Am    F/C    C     G/B
I swear,     I swear  


[Interlude]

Am  F/C  C  G/B  (x2)


[Chorus]

   Am                       F/C    
At first I had to ask twice for your name
    C                      G/B  
And now it's like a tattoo on my brain
   Am                       F/C    
At first I had to ask twice for your name
    C                      G/B  
And now it's like a tattoo on my brain

  Am    F/C    C     G/B
I swear,     I swear
  Am    F/C    C     G/B
I swear,     I swear  

G/B                    Am
   You're etched on my brain
Suggest correction
Give kudos to tab author, rate the tab!
1 2 3 4 5
comments
print report bad tab
guest
You may want to rate the tab now too:
select rating
Wanna post a correction for this tab? Suggest correction