Oops, an error
Loading. Please wait.

Bad Blood Bass Tab

version 1
version 1

Whole song

  • This is the first tab for this song. It's very accurate to the original song.

Interactive

139 views 6 this week
no commentswrite comment
1 2 3 4 5
3 more votes to show rating
add to favorites
launch autoscroll
font size
0
reset
guitar tuner
Autoscroll
slow
fast
+/-
esc
set tempo
stop
Help us to improve Ultimate-Guitar.com Take our survey!
×
Author
Difficulty
Tuning
novice
E A D G B E
About this tab version
This is the first tab for this song. It's very accurate to the original song. Was this info helpful? Yes No
Song: Bad Blood
Artist: Bastille
Album: Bad Blood
Tuning: Standard

Tabbed by Asa Wentworth, email me @ stroodleman8451@yahoo.com

Intro:

0:00
g|-----------------------------------------------------| 
d|-----------------------------------------------------|
a|---8-8-8-8---6-6-6---------8-8-8-8---6-6-6-----------| x4
e|-------------------9-9-9-9-----------------9-9-9-9---|

Verse:
doesn't play

Pre Chorus:

0:40
"...that these are the days..."
g|-----------------------------------| 
d|-----------------------------------|
a|----------8~-----------6~----------| x2
e|---9~-----------9~-----------------|

Chorus:

0:54
"All this bad blood here..."
g|-------------------------------------------------------------| 
d|-------------------------------------------------------------|
a|---8-8--8-8-8--8-8-8--8-8-8--8-------------------------------|
e|-------------------------------9-9--9-9-9--9-9-9--9-9-9--9---|
                                                                x2
g|-------------------------------------------------------------| 
d|-------------------------------------------------------------|
a|---6-6--6-6-6--6-6-6--6-6-6--6-6-6--6-6-6--6-6-6--6-6-6--6---|
e|-------------------------------------------------------------|

g|-----------------------------------------------------| 
d|-----------------------------------------------------|
a|---8-8-8-8---6-6-6---------8-8-8-8---6-6-6-----------|
e|-------------------9-9-9-9-----------------9-9-9-9---|

Verse:

1:27
"If we're only ever..."
g|-----------------------------------------------------| 
d|-----------------------------------------------------|
a|---8-8-8-8---6-6-6---------8-8-8-8---6-6-6-----------| x2
e|-------------------9-9-9-9-----------------9-9-9-9---|


Pre Chorus:

1:40
"But those are the days..."
g|------------------------------------------------------------------------------------------------------| 
d|------------------------------------------------------------------------------------------------------|
a|-------------8-8-8-8-8-8-8-8-----------6-6-6-6-6-6-6-6-----------8-8-8-8-8-8-8-8-----------6-6-6-6----|
e|---9-9-9-9-------------------9-9-9-9-------------------9-9-9-9-------------------9-9-9-9--------------|

Chorus:

1:54
"All this bad blood here..."
g|-------------------------------------------------------------| 
d|-------------------------------------------------------------|
a|---8-8--8-8-8--8-8-8--8-8-8--8-------------------------------|
e|-------------------------------9-9--9-9-9--9-9-9--9-9-9--9---|
                                                                x2
g|-------------------------------------------------------------| 
d|-------------------------------------------------------------|
a|---6-6--6-6-6--6-6-6--6-6-6--6-6-6--6-6-6--6-6-6--6-6-6--6---|
e|-------------------------------------------------------------|



Bridge
doesn't play

Final Chorus

2:48
"All this bad blood here..."
g|-------------------------------------------------------------| 
d|-------------------------------------------------------------|
a|---8-8--8-8-8--8-8-8--8-8-8--8-------------------------------|
e|-------------------------------9-9--9-9-9--9-9-9--9-9-9--9---|
                                                                x2
g|-------------------------------------------------------------| 
d|-------------------------------------------------------------|
a|---6-6--6-6-6--6-6-6--6-6-6--6-6-6--6-6-6--6-6-6--6-6-6--6---|
e|-------------------------------------------------------------|

g|-----------------------------------------------------| 
d|-----------------------------------------------------|
a|---8-8-8-8---6-6-6---------8-8-8-8---6-6-6-----------| x2
e|-------------------9-9-9-9-----------------9-9-9-9---|

Rate and comment!
Suggest correction
Give kudos to tab author, rate the tab!
1 2 3 4 5
comments
print report bad tab
guest
You may want to rate the tab now too:
select rating
Wanna post a correction for this tab? Suggest correction