Oops, an error
Loading. Please wait.

Flaws Tab

version 1
version 1

Intro

Whole song

4,082 views 3 this week
no commentswrite comment
1 2 3 4 5
x 4
add to favorites
launch autoscroll
font size
0
reset
how to read this tab
guitar tuner
Autoscroll
slow
fast
+/-
esc
set tempo
stop
Help us to improve Ultimate-Guitar.com Take our survey!
×
Author
Difficulty
intermediate
-------------------------------------------------------------------------------
                             Flaws - Bastille
-------------------------------------------------------------------------------
Tabbed by:J Gloz

Tuning: Standard

Intro riff, second time round add the last two notes at the end.

e|----15-15-15--12-12----------------------------|----------------------------|
B|-------------------15-15-12-12-----------------|----------------------------|
G|-------------------------------12-12-9-9-9-9-9-|-------12-12-12-12-12-------|
D|-----------------------------------------------|--12-12---------------------|
A|-----------------------------------------------|----------------------------|
E|-----------------------------------------------|----------------------------|

Verse:

e|------------------------------12-10-------------------------------------12----------12-----|
B|-----------12--------------12--------12-10--------------------------12-12--12---12-12--9---|
G|--12-12-12----12-12-12-12------------------12-9----9-11-12-11-9-12-------------------------|
D|-------------------------------------------------------------------------------------------|
A|-------------------------------------------------------------------------------------------|
E|-------------------------------------------------------------------------------------------|


Chorus:
e|----------------10-12b-10-12b------------------------10-12-15-12-10-12b-10-------|
B|------------10-12---------------12-10------------10-12----------------------10---|
G|-----9-12---------------------------------9-12-----------------------------------|
D|-12------------------------------------12----------------------------------------|
A|---------------------------------------------------------------------------------|
E|---------------------------------------------------------------------------------|
Suggest correction
comments
print report bad tab
guest
You may want to rate the tab now too:
select rating
Wanna post a correction for this tab? Suggest correction