Oops, an error
Loading. Please wait.

Flaws Tab

version 1
version 1

Whole song

39,645 views 66 this week
4 commentsread comments
1 2 3 4 5
excellent!
x 23
add to favorites
launch autoscroll
font size
0
reset
how to read this tab
guitar tuner
Autoscroll
slow
fast
+/-
esc
set tempo
stop
Help us to improve Ultimate-Guitar.com Take our survey!
×
Author
Capo
1st fret
-------------------------------------------------------------------------------
                             Flaws - Bastille
-------------------------------------------------------------------------------
Tabbed by: Neil Wicker
E-mail: wicker101@hotmail.co.uk
YouTube: http://bit.ly/NeilWickerMusic

Tuning: Standard

Capo 1

I updated this when the official acoustic version came out on the extended edition of 
the album. It's played differently in basically every live acoustic video I've seen, so 
basically just play around with these chords. Enjoy :)

Intro and Verse:

   C
e|--------------------------------------|--------------------------------------|
B|--------1--------1--------1--------1--|--------0--------0--------0--------0--|
G|-----0--------0--------0--------0-----|-----0--------0--------0--------0-----|
D|-----------2-----------------2--------|-----------2-----------------2--------|
A|--3-----------------3-----------------|--3-----------------3-----------------|
E|--------------------------------------|--------------------------------------|

    G                                   C
e|--------------------------------------|------------------------------------|
B|--------0--------0--------0--------0--|--------1--------1------------------|
G|-----0--------0--------0--------0-----|-----0--------0---------------------|
D|-----------------------------0--------|-----------0--------0h2-------------|
A|-----------0--------2-----------------|--3---------------------------------|
E|--3-----------------------------------|------------------------------------|
-


Pre-Chorus:

   Em                                   C
e|--------------------------------------|--------------------------------------|
B|--------0--------0--------0--------0--|--------1--------1--------1--------1--|
G|-----0--------0--------0--------0-----|-----0--------0--------0--------0-----|
D|--------------------------------------|-----------2-----------------2--------|
A|-----------2-----------------2--------|--3-----------------3-----------------|
E|--0-----------------0-----------------|--------------------------------------|

    G                                   D
e|--------------------------------------|--------------------------------------|
B|--------0--------0--------0--------0--|--------3--------3--------3--------3--|
G|-----0--------0--------0--------0-----|-----2--------2--------2--------2-----|
D|-----------------------------0--------|-----------0-----------------0--------|
A|-----------0--------2-----------------|--0-----------------0-----------------|
E|--3-----------------------------------|--------------------------------------|

Chorus

    G                                   C
e|--------------------------------------|--------------------------------------|
B|--------3--------3--------3--------3--|--------1--------1--------1--------1--|
G|-----0--------0--------0--------0-----|-----0--------0--------0--------0-----|
D|-----------------------------0--------|-----------0--------2-----------------|
A|-----------0--------2-----------------|--3--------------------------3--------|
E|--3-----------------------------------|--------------------------------------|

    D                                     Em
e|--------------------------------------|--------------------------------------|
B|--------3--------3--------3--------3--|--------0--------0--------0--------0--|
G|-----2--------2--------2--------2-----|-----0--------0--------0--------0-----|
D|-----------0-----------------0--------|--------------------------------------|
A|--0-----------------0-----------------|-----------2--------------------------|
E|--------------------------------------|--0-----------------0--------2--------|

    G                                   C
e|--------------------------------------|--------------------------------------|
B|--------3--------3--------3--------3--|--------1--------1--------1--------1--|
G|-----0--------0--------0--------0-----|-----0--------0--------0--------0-----|
D|-----------------------------0--------|-----------0--------2-----------------|
A|-----------0--------2-----------------|--3--------------------------3--------|
E|--3-----------------------------------|--------------------------------------|
   D                                       G
e|--------------------------------------|--------------------------------------|
B|--------3--------3--------3--------3--|--3--------3--------3--------3--------|
G|-----2--------2--------2--------2-----|--0--------0--------0--------0--------|
D|-----------0-----------------0--------|--------------------------------------|
A|--0-----------------0-----------------|--------------------------------------|
E|--------------------------------------|--3--------3--------3---------3-------|

chorus part 2:

   C                                    G
e|--------------------------------------|--------------------------------------|
B|--------1--------1--------1--------1--|--------3--------3--------3--------3--|
G|-----0--------0--------0--------0-----|-----0--------0--------0--------0-----|
D|-----------0--------2-----------------|-----------------------------0--------|
A|--3--------------------------3--------|-----------0--------2-----------------|
E|--------------------------------------|--3-----------------------------------|

   D
e|--------------------------------------|--------------------------------------|
B|--------3--------3--------3--------3--|--------3--------3--------3--------3--|
G|-----2--------2--------2--------2-----|-----2--------2--------2--------2-----|
D|-----------0-----------------0--------|-----------0-----------------0--------|
A|--0-----------------0-----------------|--0-----------------0-----------------|
E|--------------------------------------|--------------------------------------|

Bridge:

   C
e|--------------------------------------|--------------------------------------|
B|--------1--------1--------1--------1--|--------1--------1--------1--------1--|
G|-----0--------0--------0--------0-----|-----0--------0--------0--------0-----|
D|-----------2-----------------2--------|-----------2-----------------2--------|
A|--3-----------------3-----------------|--3-----------------3-----------------|
E|--------------------------------------|--------------------------------------|

e|--------------------|
B|--------1--------1--|
G|-----0--------0-----|
D|-----------2--------|
A|--3-----------------|
E|--------------------|

   G
e|--------------------------------------|--------------------------------------|
B|--------0--------0--------0--------0--|--------0--------0--------0--------0--|
G|-----0--------0--------0--------0-----|-----0--------0--------0--------0-----|
D|-----------------------------0--------|-----------------------------0--------|
A|-----------0--------2-----------------|-----------0--------2-----------------|
E|--3-----------------------------------|--3-----------------------------------|

after last repeat bridge repeat:

e|--------------2h3p2-----|
B|--------2------------2--|
G|-----3-----3------------|
D|--0---------------------|
A|------------------------|
E|------------------------|

Song structure

intro x2
verse x4
pre chorus x2
chorus
chorus part 2 x2
verse x2
pre chorus x2
chorus
chorus part 2 x2
bridge x4
chorus
chorus part 2 x4
verse x2


************************************

| /   slide up
| \   slide down
| h   hammer-on
| p   pull-off
| ~   vibrato
| +   harmonic
| x   Mute note
| b   Bend
| pb  Pre-bend
| br  Bend release
| pbr Pre-bend release
| brb Bend release bend

************************************
Suggest correction
comments
print report bad tab
4 comments total. Showing first comments.
0 reply
bethpm 42 wrote on November 26 2012, 02:50 pm

Great tab! Absolutely LOVE this version of the song, so glad it's been tabbed out! Thank you very much! x :D

0 reply
saitkenn 10 wrote on April 26 2013, 02:29 am

this was perfect thank you!

0 reply
saitkenn 10 wrote on April 26 2013, 02:29 am

this was perfect thank you!

guest
You may want to rate the tab now too:
select rating
Please do not post tabs as comments. Select "correction" instead!