Oops, an error
Loading. Please wait.

Good Grief Bass

5,623 views 123 this week
no commentswrite comment
1 2 3 4 5
x 10
add to favorites
launch autoscroll
font size
0
reset
guitar tuner
×
Best way to learn
"Good Grief"
Autoscroll
slow
fast
+/-
esc
set tempo
stop
Author
Difficulty
  follow
intermediate
About this tab version
This is the first tab of this song. It's pretty accurate to the original song, save for the post-chorus. Was this info helpful? Yes No
-------------------------------------------------------------------------------
                          Good Grief - Bastille
-------------------------------------------------------------------------------
Tabbed by: Asa Wentworth. 
Email me: asawentworth@yahoo.com

Tuning: Standard

There weren't any tabs of this song so I decided to try and tab it.
Correct me if anything's wrong.

Intro:

0:05
g|----------------------------------------------------------------------------------|
d|----6-6--x-6-x-6---4--6-6--x-6-x-6-------4-4--x-4-x-4---4h3-----------------------|
a|------------------6------------------4h6--------------------4-4--x-4--------------|
e|----------------------------------------------------------------------------------|

Verse:

0:14 - 1:01
"Watching through my fingers..."
g|-------------------------------------------------------------------------------------|
d|----6-6--x-6-x-6---4--6-6--x-6-x-6-------4-4--x-4-x-4---4h3-----------------4*-------|
a|------------------6------------------4h6--------------------4-4--x-4-x-4---6*--------| x6
e|-------------------------------------------------------------------------------------|
don't play * on the last play through

Pre Chorus:

1:02
"What's gonna be left of the world..."
g|-----------------------------------------------|
d|---------3~------------------3~----------------|
a|--4-6--------------4~-------------------6~-----|
e|-----------------------------------------------|

Chorus:

1:10
"Every minute, and every hour..."
g|----------------------------------------------------------------|
d|----------------------------------------------------------------|
a|------------44-4h3-------------6h8h6-3-44-4h3-------------------| x2
e|---44--4-4---------44--4\1-1------------------44--(2)-----------|
best heard on the live version. Listen to it for the timing. It's quick

1:26
"Watching through my fingers..."
g|----------------------------------------------------------------|
d|----------------------------------------------------------------|
a|------------44-4h3-------------6h8h6-3-44-4h3-------------------|
e|---44--4-4---------44--4\1-1------------------44----------------|

Verse:

1:34
"Caught off guard..."
g|-------------------------------------------------------------------------------------|
d|----6-6--x-6-x-6---4--6-6--x-6-x-6-------4-4--x-4-x-4---4h3-----------------4*-------|
a|------------------6------------------4h6--------------------4-4--x-4-x-4---6*--------| x2
e|-------------------------------------------------------------------------------------|
don't play * on the last play through

Pre Chorus:

1:50
"What's gonna be left of the world..."
g|------------------------------------------------|
d|---------3~------------------3~------------6----|
a|--4-6--------------4~-------------------6-------|
e|------------------------------------------------|
Chorus:

1:58
"Every minute, and every hour..."
g|----------------------------------------------------------------|
d|----------------------------------------------------------------|
a|------------44-4h3-------------6h8h6-3-44-4h3-------------------| x2
e|---44--4-4---------44--4\1-1------------------44--(2)-----------|

Bridge:

2:14
g|-------------------------------------------------------------------------------------|
d|----6-6--x-6-x-6---4--6-6--x-6-x-6-------4-4--x-4-x-4---4h3--------------------------|
a|------------------6------------------4h6--------------------4-4--x-4-x-4-------------|
e|-------------------------------------------------------------------------1h2---------|

g|---------------------------------------------------------------------------------------------|
d|---------------------------------------------------------------------------------------------|
a|----------------------------------------------------------------4-4--x-4-x-4-----------------|
e|----4-4--x-4-x-4---1h2--4-4--x-4-x-4---0h1--2-2--x-2-x-2---2h1---------------1h2-------------|

g|---------------------------------------------------------------------------------------------|
d|---------------------------------------------------------------------------------------------|
a|----------------------------------------------------------------4-4--x-4-x-4-----------------|
e|----4-4--x-4-x-4---1h2--4-4--x-4-x-4---0h1--2-2--x-2-x-2---2h1-------------------------------|

g|--------------------------------------------------------------------------------------------------|
d|----6-6--x-6-x-6---6h8--11-11--x-11-x-11---11h13--15-15--x-15-x-15---15h13--11-11--x-11-x-11\-----|
a|--------------------------------------------------------------------------------------------------|
e|--------------------------------------------------------------------------------------------------|

g|------------------------------------------------------------------------------------------|
d|----6-6--x-6-x-6---6h8--11-11--x-11-x-11---11h13--15-15--x-15-x-15\---------6\------------|
a|---------------------------------------------------------------------4-4-4----------------|
e|------------------------------------------------------------------------------------------|
I know it looks confusing, but just listen to the song and you'll get it

Final Chorus:

2:53
"Every minute, and every hour..."
g|----------------------------------------------------------------|
d|----------------------------------------------------------------|
a|------------44-4h3-------------6h8h6-3-44-4h3-------------------| x4
e|---44--4-4---------44--4\1-1------------------44----------------|
he does some slides on the last four, and adds a few fills throughout.

3:24
g|-------------|
d|-------------|
a|-------------|
e|------x4-----|
coming right off the
last four it ends on this

Rate and comment!
Suggest correction
comments
print report bad tab
guest
You may want to rate the tab now too:
select rating
Wanna post a correction for this tab? Suggest correction