Oops, an error
Loading. Please wait.

Good Grief bass

version 2
version 2

Whole song

  • This is the first tab of this song. It's pretty ac... Show more
  • Tabbed by ear using the original song.
112 views 18 this week
no commentswrite comment
1 2 3 4 5
3 more votes to show rating
add to favorites
×
Save as Personal and add changes to this tab that will be seen only by you. Learn more ›
×
You can save this tab as Personal to edit and correct it or add notes. All changes will be seen only by you. Learn more »
launch autoscroll
font size
0
reset
guitar tuner
edit
Autoscroll
slow
fast
+/-
esc
set tempo
stop
About this tab version
Tabbed by ear using the original song. Was this info helpful? Yes No
It will be very useful to listen to the song whilst learning to understand the rhythm, although I have
tried to indicate this through the spaces left between each note.

[Intro]
(0:05)  
G|-1--1--1-1-1-1------1--1--1-1-1-1------------------------------------------|
D|---------------1h3----------------1h3-4--4--4-4-4-4-3h1--------------------| (x2)  
A|--------------------------------------------------------4--4--4-4-4-4------|
E|---------------------------------------------------------------------------|

[Verse]
Shuts my eyes...  
(0:20)
G|-1--1--1-1-1-1------1--1--1-1-1-1------------------------------------------|
D|---------------1h3----------------1h3-4--4--4-4-4-4-3h1--------------------| (x5)
A|--------------------------------------------------------4--4--4-4-4-4------|
E|---------------------------------------------------------------------------|

{Pre-Chorus]
What gonna be left....  
(1:00)
G|--------------------1-|
D|-3---------3----1-1---| (x1)
A|------4---------------|
E|----------------------|
 
[Chorus]
Every minute...  
(1:09)
G|--------------------------|
D|--------------------------| (x2)
A|------4-4-3-3------4-4----|
E|-4------------1--------4--|

[Pre-Verse}
Watching through...   
(1:25) 
G|---------------------------------|
D|-----------------3-3-3-----------| (x1)
A|--4h3-4-4--------------3h4-4-4---|
E|-4--------4---1----------------4-|

[Verse]
Caught off guard...   
(1:32) 
G|-1--1--1-1-1-1------1--1--1-1-1-1------------------------------------------|
D|---------------1h3----------------1h3-4--4--4-4-4-4-3h1--------------------| (x2)
A|--------------------------------------------------------4--4--4-4-4-4------|
E|---------------------------------------------------------------------------|

{Pre-Chorus]
What gonna be left....   
(1:49)
G|--------------------1-|
D|-3---------3----1-1---| (x1)
A|------4---------------|
E|----------------------| 

[Chorus]
Every minute...    
(1:56)
G|--------------------------|
D|--------------------------| (x2)
A|------4-4-3-3------4-4----|
E|-4------------1--------4--|

[Verse]
If you want to be...     
(2:13)
G|-1--1--1-1-1-1------1--1--1-1-1-1------------------------------------------|
D|---------------1h3----------------1h3-4--4--4-4-4-4-3h1--------------------| (x3)
A|--------------------------------------------------------4--4--4-4-4-4------|
E|---------------------------------------------------------------------------|

[Bridge]
So get drunk....  
(2:36)    
G|-1--1--1-1-1-1--6--6--6-6-6-6--10--10--10-10-10-10--6--6--6-6-6-6--|
D|-------------------------------------------------------------------| (x2) 
A|-------------------------------------------------------------------|
E|-------------------------------------------------------------------|

[Chorus]
Every minute...    
(2:53)
G|--------------------------|
D|--------------------------| (x2)
A|------4-4-3-3------4-4----|
E|-4------------1--------4--|

[Outro}
Watching through...   
(3:09)
G|---------------------------------|
D|-----------------3-3-3-----------| (x2)
A|--4h3-4-4--------------3h4-4-4---|
E|-4--------4---1----------------4-|


************************************

| h  Hammer-on

************************************
Suggest correction
Creating personal tab
Creating personal tab
You can edit any tab online and save it as your Personal.

You can edit, replace or remove any tab part or add personal notes – all changes will be seen only by you.

Personal tabs can be accessed anytime from any device, even offline.
Learn more »
Give kudos to tab author, rate the tab!
1 2 3 4 5
comments
print report bad tab
guest
You may want to rate the tab now too:
select rating
Wanna post a correction for this tab? Suggest correction