Oops, an error
Loading. Please wait.

Lethargy Bass

784 views 9 this week
no commentswrite comment
1 2 3 4 5
x 4
add to favorites
launch autoscroll
font size
0
reset
guitar tuner
×
Best way to learn
"Lethargy"
Autoscroll
slow
fast
+/-
esc
set tempo
stop
Author
Difficulty
About this tab version
This is the first tab for this song. It's very accurate to the song. Was this info helpful? Yes No
Song: Lethargy
Band: Bastille
Album: Wild World
Tuning: Standard

Most of it should be correct, some parts I'm not too sure on, but it sounds pretty good.

Tabbed by Asa Wentworth. Email me @ stroodleman8451@yahoo.com

Verse:

0:14
"Lethargy got a hold..."
g|--------------------------------------------------------------------------------|
d|--------------------------------------------------------------------------------|
a|---7-7-7-7-7-7-7-7-6-6-11-11-9-9-9-9--7-7-7-7-7-7-7-7-6-6-11-11-9-9-9--9h7/6----|
e|--------------------------------------------------------------------------------|
not completely sure about on the hammer-on slide, but it sounds close enough

Pre Chorus:

0:30
"Get up, get up..."
g|---------------------------------------------------------------------------------|
d|--------------------------------------9h8h6--------------------------------------|
a|---7-7-7-7-11-11-11-11-9-9-9-9-6-6-6---------9--7-7-7-7-11-11-11-11-9-9-9-9-6-6--|
e|---------------------------------------------------------------------------------|

0:43
  "you told me not to"
g|-13-11---------------|
d|----------13--11--9--|
a|---------------------|
e|---------------------|
  play on each word


Chorus:

0:45
"...be like anybody else..."
g|-----9---9----9---9----4----4---4----4-----13-----13-----13-----13---11----11----11---11------|
d|----------------------------------------------------------------------------------------------|
a|--7----7---7----7---2----2----2---2----11-----11-----11-----11------9-----9-----9-----9-------| x2
e|----------------------------------------------------------------------------------------------|

1:00
"You checked out years ago..."
g|-----9---9----9---9----9----9---9----9-----16-----16-----16-----16---11----11----11---11-------|
d|-----------------------------------------------------------------------------------------------|
a|--7----7---7----7---7----7----7---7----14-----14-----14-----14------9-----9-----9-----9--------| x2
e|-----------------------------------------------------------------------------------------------|

Verse:
1:17
"...english man up in space...."
g|---------------------------------------------------------------------------------|
d|-----------------------------------------------------------------------9h8h6-----|
a|---7-7-7-7-7-7-7-7-6-6-11-11-9-9-9-9--7-7-7-7-7-7-7-7-6-6-11-11-9-9-9---------9--|
e|---------------------------------------------------------------------------------|

1:31
"Get up, get up..."
g|---------------------------------------------------------------------------------|
d|--------------------------------------9h8h6--------------------------------------|
a|---7-7-7-7-11-11-11-11-9-9-9-9-6-6-6---------9--7-7-7-7-11-11-11-11-9-9-9-9-6-6--|
e|---------------------------------------------------------------------------------|

1:45
  "you told me not to"
g|-13-11---------------|
d|----------13--11--9--|
a|---------------------|
e|---------------------|


Chorus:

1:46
"...be like anybody else..."
g|-----9---9----9---9----4----4---4----4-----13-----13-----13-----13---11----11----11---11------|
d|----------------------------------------------------------------------------------------------|
a|--7----7---7----7---2----2----2---2----11-----11-----11-----11------9-----9-----9-----9-------| x2
e|----------------------------------------------------------------------------------------------|

2:01
"You checked out years ago..."
g|-----9---9----9---9----9----9---9----9-----16-----16-----16-----16---11----11----11---11-------|
d|-----------------------------------------------------------------------------------------------|
a|--7----7---7----7---7----7----7---7----14-----14-----14-----14------9-----9-----9-----9--------| x2
e|-----------------------------------------------------------------------------------------------|

Bridge:

2:24
"Paint the scene for me..."
g|----------------------------------------------------------------------|
d|------------------11-13-14-14~------------------------11-13-14-14~----|
a|---11--13-14-14~-----------------------11--13-14-14~------------------|
e|----------------------------------------------------------------------|

g|--------------------------------13-11----------------------|
d|------------------11-13-14-14~--------13-11----------------|
a|---11--13-14-14~----------------------------14/------------|
e|-----------------------------------------------------------|

2:52
  "you told me not to"
g|-13-11---------------|
d|----------13--11--9--|
a|---------------------|
e|---------------------|

Final Chorus:

2:54
"...be like anybody else..."
g|-----9---9----9---9----4----4---4----4-----13-----13-----13-----13---11----11----11---11------|
d|----------------------------------------------------------------------------------------------|
a|--7----7---7----7---2----2----2---2----11-----11-----11-----11------9-----9-----9-----9-------|
e|----------------------------------------------------------------------------------------------|

3:01
g|-----9---9----9---9----4----4---4----4----------------------------|
d|------------------------------------------------------------------|
a|--7----7---7----7---2----2----2---2----11-11-11-11--9-9-9-9-------|
e|------------------------------------------------------------------|

3:09
"You checked out years ago..."
g|-----9---9----9---9----9----9---9----9-----16-----16-----16-----16---11----11----11---11-------|
d|-----------------------------------------------------------------------------------------------|
a|--7----7---7----7---7----7----7---7----14-----14-----14-----14------9-----9-----9-----9--------|
e|-----------------------------------------------------------------------------------------------|

3:16
g|-----9---9----9---9----9----9---9----9-----16-----16-----16-----16---11---------|
d|--------------------------------------------------------------------------------|
a|--7----7---7----7---7----7----7---7----14-----14-----14-----14------9-----------|
e|--------------------------------------------------------------------------------|
end on the last 9

Rate and comment!
Suggest correction
comments
print report bad tab
guest
You may want to rate the tab now too:
select rating
Wanna post a correction for this tab? Suggest correction