Oops, an error
Loading. Please wait.

Oblivion tab

2,001 views 6 this week
no commentswrite comment
1 2 3 4 5
x 5
add to favorites
×
Save as Personal and add changes to this tab that will be seen only by you. Learn more ›
×
You can save this tab as Personal to edit and correct it or add notes. All changes will be seen only by you. Learn more »
launch autoscroll
font size
0
reset
how to read this tab
guitar tuner
edit
Autoscroll
slow
fast
+/-
esc
set tempo
stop
OBLIVION by BASTILLE

Tabbed by Hanna Melander 
instagram: @wildworldpilots
Based on this piano tutorial: https://youtu.be/8m9W15tCZQ0 


The chords for the verses are:

     Bb   F     C
When you fall asleep
      Bb   F    Dm      Am7
With your head upon my shoulder


Are you going to age with grace?
 e|-------------------------0-----0-1-----1-3-----3-5-----5-0-----0------|
 B|-3-----3-----3---3-----3-----1-------3-------3-------3-------3--------| 
 g|-----3-----3---------3-----0-------2-------2-------2-------2----------|
 d|---3-----3-----3---3--------------------------------------------------|
 a|----------------------------------------------------------------------|
 e|----------------------------------------------------------------------|

Are you going to age without mistakes?
 e|-------------------------0-----0-1-----1-3-----3-0-----0-----0--------|
 B|-3-----3-----3---3-----3-----1-------3-------3-------3-----3----------| 
 g|-----3-----3---------3-----0-------2-------2-------2-----2-----2------|
 d|---3-----3-----3---3--------------------------------------------------|
 a|----------------------------------------------------------------------|
 e|----------------------------------------------------------------------|

When ooooh oblivion
 e|-----1-----1-----1-----1-----1-------1-----1-----1-----1-----1------|
 B|---3-----3-----3-----3-----3-------1-----1-----1-----1-----1--------| 
 g|-3-----3-----3-----3-----3-----3-2-----2-----2-----2-----2-----2----|
 d|--------------------------------------------------------------------|
 a|--------------------------------------------------------------------|
 e|--------------------------------------------------------------------|

Is calling out your name
 e|-----1-----1---------1-----1---------1-----1-----1-----1-----1------|
 B|---3-----3-----3---3-----3-----3---1-----1-----1-----1-----1--------| 
 g|-2-----2-----2---3-----3-----3---2-----2-----2-----2-----2-----2----|
 d|--------------------------------------------------------------------|
 a|--------------------------------------------------------------------|
 e|--------------------------------------------------------------------|

You always take it further
 e|-----0-----0-----0-----0-----0-------1-----1-----1-----1-----1------|
 B|---1-----1-----1-----1-----1-------3-----3-----3-----3-----3--------| 
 g|-0-----0-----0-----0-----0-----0-2-----2-----2-----2-----2-----2----|
 d|--------------------------------------------------------------------|
 a|--------------------------------------------------------------------|
 e|--------------------------------------------------------------------|

Than I ever can
 e|-----1-----1-----1-----1-----1-------1-----1-----1-(hold)-|
 B|---3-----3-----3-----3-----3-------1-----1-----1----------| 
 g|-3-----3-----3-----3-----3-----3-2-----2-----2------------|
 d|----------------------------------------------------------|
 a|----------------------------------------------------------|
 e|----------------------------------------------------------|

Suggest correction
Creating personal tab
Creating personal tab
You can edit any tab online and save it as your Personal.

You can edit, replace or remove any tab part or add personal notes – all changes will be seen only by you.

Personal tabs can be accessed anytime from any device, even offline.
Learn more »
comments
print report bad tab
guest
You may want to rate the tab now too:
select rating
Wanna post a correction for this tab? Suggest correction