Oops, an error
Loading. Please wait.

Pompeii Tab

version 1
version 1

Acoustic

Whole song

Interactive

Video

93,125 views 249 this week
3 commentsread comments
1 2 3 4 5
excellent!
x 40
add to favorites
launch autoscroll
font size
0
reset
how to read this tab
guitar tuner
Autoscroll
slow
fast
+/-
esc
set tempo
stop
Help us to improve Ultimate-Guitar.com Take our survey!
×
Author
POMPEII - Bastille
Tabbed by:tomrobinsonnn
E-mail:robo_tom1@hotmail.com
Tuning:Standard


Made this tab as there wasn't an acoustic one for it already. I've taken it from
Bastille's Mahogany session on youtube here: http://www.youtube.com/watch?v=KI13Pe6IvDc. In
regards to the chorus you can simple strum or make up your own. It's my first tab
so any corrections or queries then please let me know!


[Intro/Verse]

e|-----------------------------------|
B|-----------------------------------|
G|---11-------6------2-------1-------|
D|-----------------------------------| x 2
A|-----------------------------------|
E|---10-------5------2-------0-------|

e|-----------------------------------|
B|-----------------------------------|
G|---11-------6------2-------1-------|
D|-----------------------------------| x 4
A|-----------------------------------|
E|---10-------5------2-------0-------|


[Chorus]

e|---5-------5-------2-------0-------|
B|---5-------5-------2-------0-------|
G|---7-------6-------2-------1-------|
D|---7-------7-------4-------2-------| x 2
A|---5-------7-------4-------2-------|
E|---5-------5-------2-------0-------|

e|---5-------5-------0-----|
B|---5-------5-------0-----|
G|---7-------6-------1-----|
D|---7-------7-------2-----| x 2
A|---5-------7-------2-----|
E|---5-------5-------0-----|


[Verse]

e|---------------------------------------------------------------------------|
B|---------------------------------------------------------------------------|
G|-----11---11---11---11---6---6---6---6---2---2---2---2---1---1---1---1-----|
D|---------------------------------------------------------------------------| x 4
A|---------------------------------------------------------------------------|
E|---10---10---10---10---5---5---5---5---2---2---2---2---0---0---0---0-------|


[Chorus]

e|---5-------5-------2-------0-------|
B|---5-------5-------2-------0-------|
G|---7-------6-------2-------1-------|
D|---7-------7-------4-------2-------| x 2
A|---5-------7-------4-------2-------|
E|---5-------5-------2-------0-------|

e|---5-------5-------0-----|
B|---5-------5-------0-----|
G|---7-------6-------1-----|
D|---7-------7-------2-----| x 2
A|---5-------7-------2-----|
E|---5-------5-------0-----|

e|---5-------5-------2-------0-------|
B|---5-------5-------2-------0-------|
G|---7-------6-------2-------1-------|
D|---7-------7-------4-------2-------| x 1
A|---5-------7-------4-------2-------|
E|---5-------5-------2-------0-------|


[Bridge]

e|-----------------------------------|
B|-----------------------------------|
G|---11-------6------2-------1-------|
D|-----------------------------------| x 3
A|-----------------------------------|
E|---10-------5------2-------0-------|

e|---5-------5-------2-------0-------|
B|---5-------5-------2-------0-------|
G|---7-------6-------2-------1-------|
D|---7-------7-------4-------2-------| x 2
A|---5-------7-------4-------2-------|
E|---5-------5-------2-------0-------|


[Chorus]

e|---5-------5-------2-------0-------|
B|---5-------5-------2-------0-------|
G|---7-------6-------2-------1-------|
D|---7-------7-------4-------2-------| x 2
A|---5-------7-------4-------2-------|
E|---5-------5-------2-------0-------|

e|---5-------5-------0-----|
B|---5-------5-------0-----|
G|---7-------6-------1-----|
D|---7-------7-------2-----| x 2
A|---5-------7-------2-----|
E|---5-------5-------0-----|


[Outro]

e|---5-------5-------2-------0-------|
B|---5-------5-------2-------0-------|
G|---7-------6-------2-------1-------|
D|---7-------7-------4-------2-------|
A|---5-------7-------4-------2-------|
E|---5-------5-------2-------0-------|

e|-----------------------------------|
B|-----------------------------------|
G|---11-------6------2-------1-------|
D|-----------------------------------| x 2
A|-----------------------------------|
E|---10-------5------2-------0-------|
Suggest correction
comments
print report bad tab
3 comments total. show 1 bad comment
+2 reply
Musekal 10 wrote on December 11 2013, 12:22 am

This is Pompeii. What are you thinking of?

0 reply
ghosgarzeck 10 wrote on February 28 2015, 11:04 am

nice tab dude :D Love it

guest
You may want to rate the tab now too:
select rating
Wanna post a correction for this tab? Suggest correction