Oops, an error
Loading. Please wait.
We have an official Pompeii tab made by UG professional guitarists. Check out the tab »
×
36,650 views 36 this week
3 commentsread comments
1 2 3 4 5
x 15
add to favorites
×
Save as Personal and add changes to this tab that will be seen only by you. Learn more ›
×
You can save this tab as Personal to edit and correct it or add notes. All changes will be seen only by you. Learn more »
launch autoscroll
font size
0
reset
guitar tuner
edit
Autoscroll
slow
fast
+/-
esc
set tempo
stop
Author
Difficulty
intermediate
[Intro]

(no bass)


[Verse]

 "And the walls..."
G|-------------------|
D|-------------------|
A|-55-57-------------|
E|------55-522-200-0-|(x2)


[Chorus Part 1] 

 "But if you close your eyes"
G|----------------------------------|
D|----------------------------------|
A|-55555555-------------------------|
E|---------555555552222222200000000-|(x2)


[Chorus Part 2] 

 "How am I gonna be an optimist about this?"
G|-------------------------|
D|-------------------------|
A|-55-5-7-9-12-9-7-7-16-14-|
E|-------------------------|(x2)


[Bridge]

 "We were caught up..."
G|---------------------------------|
D|---------------------------------|
A|-5-5-5-5-------------------------|
E|---------5-5-5-4-2-2-2-2-0-0-0-0-|(x2)


[Verse]

 "And the walls..."
G|-------------------|
D|-------------------|
A|-55-57-------------|
E|------55-522-200-0-|(x2)


[Break] - no bass
[Chorus Part 1] (x2)
[Chorus Part 2] (x2)
[Chorus Part 1] (x1)
[Break] - no bass
[Chorus Part 1] (x2)
[Chorus Part 2] (x2)
[Chorus Part 1] (x1)
[Outro] - no bass

            
            
Suggest correction
Creating personal tab
Creating personal tab
You can edit any tab online and save it as your Personal.

You can edit, replace or remove any tab part or add personal notes – all changes will be seen only by you.

Personal tabs can be accessed anytime from any device, even offline.
Learn more »
comments
print report bad tab
3 comments total.
0 reply
jammyjamesm 352 Jun 20, 2013 12:20 PM

sting notes?

0 reply
BasShiver 10 Feb 23, 2014 01:54 AM

https://www.youtube.com/watch?v=sUZZBcKTE9I
I think my Tab is pretty accurate, check it out if You want :)

Bas Shiver

+1 reply
andrewhart1110 10 Sep 07, 2015 04:37 AM

You'll find Chorus (part 2) much easier like this:

|---------------------------|
|----------7--------9/11--9-|
|-55-5-7-9---9-7-7----------|x2
|---------------------------|

guest
You may want to rate the tab now too:
select rating
Wanna post a correction for this tab? Suggest correction