Oops, an error
Loading. Please wait.
We have an official Pompeii tab made by UG professional guitarists. Check out the tab »
×
368 views 1 this week
no commentswrite comment
1 2 3 4 5
3 more votes to show rating
add to favorites
×
Save as Personal and add changes to this tab that will be seen only by you. Learn more ›
×
You can save this tab as Personal to edit and correct it or add notes. All changes will be seen only by you. Learn more »
launch autoscroll
font size
0
reset
guitar tuner
edit
Autoscroll
slow
fast
+/-
esc
set tempo
stop
Author
Difficulty
-------------------------------------------------------------------------------
                             Pompeii - Bastille
-------------------------------------------------------------------------------

Tuning: Standard



Inro: No Bass

Pre-verse: "I was left to my own..."
G|--------------------|
D|-12-----------------|
A|-------12----9----7-| x2
E|--------------------|

Verse: "And the walls kept..."
G|------------------------------------------------|
D|------------------------------------------------|
A|-5-5----5-7-------------------------------------| x2
E|------------5-5----5-0-2-2----0-2----0-0----0-0-|

Chorus: "But if you close your eyes..."
G|------------------------------------------------------------|
D|------------------------------------------------------------|
A|-------55555555555557---------------------------------------| x2
E|----------------------555555555555-2222222222224-0000000000-|

 "How I'm gonna be an optimist..."
G|---------------|
D|---7------9-11-|
A|-5---7---------| x2
E|---------------|

 Verse: "We were caught up..."
G|-----------------------------------------|
D|--7-7-7-7--------------------------------|
A|-5-5-5-5----7-7-7-7---4-4-4-4----2-2-2-2-| x2
E|-----------5-5-5-5---2-2-2-2----0-0-0-0--|

Verse: "And the walls kept..."
G|------------------------------------------------|
D|------------------------------------------------|
A|-5-5----5-7-------------------------------------|
E|------------5-5----5-0-2-2----0-2----0-0----0-0-|

"Grey clouds roll over the hills..."
no bass

Chorus: "But if you close your eyes..."
G|------------------------------------------------------------|
D|------------------------------------------------------------|
A|-------55555555555557---------------------------------------| x2
E|----------------------555555555555-2222222222224-0000000000-|

 "How I'm gonna be an optimist..."
G|---------------|
D|---7------9-11-|
A|-5---7---------| x2
E|---------------|

G|------------------------------------------------------------|
D|------------------------------------------------------------|
A|-------55555555555557---------------------------------------|
E|----------------------555555555555-2222222222224-0000000000-|

"oh where do we begin..."
No bass

Chorus: "But if you close your eyes..."
G|------------------------------------------------------------|
D|------------------------------------------------------------|
A|-------55555555555557---------------------------------------| x2
E|----------------------555555555555-2222222222224-0000000000-|

 "How I'm gonna be an optimist..."
G|---------------|
D|---7------9-11-|
A|-5---7---------| x2
E|---------------|

G|------------------------------------------------------------|
D|------------------------------------------------------------|
A|-------55555555555557---------------------------------------|
E|----------------------555555555555-2222222222224-0000000000-|

                 (Fade out)
G|--------------------------------------|
D|--------------------------------------|
A|-5-------------------5----------------|
E|------5----2----0---------5----2------|



| /  slide up
| \  slide down
| h  hammer-on
| p  pull-off
| ~  vibrato
| +  harmonic
| x  Mute note
===============================================================================

            
            
Suggest correction
Creating personal tab
Creating personal tab
You can edit any tab online and save it as your Personal.

You can edit, replace or remove any tab part or add personal notes – all changes will be seen only by you.

Personal tabs can be accessed anytime from any device, even offline.
Learn more »
Give kudos to tab author, rate the tab!
1 2 3 4 5
comments
print report bad tab
guest
You may want to rate the tab now too:
select rating
Wanna post a correction for this tab? Suggest correction