Oops, an error
Loading. Please wait.

Send Them Off Bass Tab

1,279 views 36 this week
no commentswrite comment
1 2 3 4 5
x 5
add to favorites
launch autoscroll
font size
0
reset
guitar tuner
Autoscroll
slow
fast
+/-
esc
set tempo
stop
Help us to improve Ultimate-Guitar.com Take our survey!
×
Author
Difficulty
About this tab version
This is the first tab of the songs so far. It's simple, and I tried to make it as easy as possible. Was this info helpful? Yes No
-------------------------------------------------------------------------------
                         Send Them Off! - Bastille
-------------------------------------------------------------------------------
Tabbed by: Asa Wentworth
Email: asawentworth@yahoo.com

I don't think the chorus is exactly right, so correct it if you think you know what it is. 
The rest of it should be right, it sounds almost perfect.

[Intro] 

0:03 
(speaking part)
g|---------------------------------------------------------------| 
d|---------------------------------------------------------------|
a|---------------------------------------------------------------| (x5)
e|----6h8-8-8-8--6h8-8-8-8--6h8-8-8-8--6h8-8-8-8-----------------|

[Verse] 

0:27 
"I've got demons..."
g|---------------------------------------------------------------| 
d|---------------------------------------------------------------|
a|---------------------------------------------------------------| (x4)
e|----6h8-8-8-8--6h8-8-8-8--6h8-8-8-8--6h8-8-8-8-----------------|


[Pre-Chorus]

0:46 
"Soak the ropes..."
g|---------------------------------------------------------------| 
d|---------------------------------------------------------------|
a|---------------------------------------------------------------|
e|---4~----6~----8~--------4~----6~----8\------------------------|


[Chorus]

0:56
"...free from my jealousy..."
g|---------------------------------------------------------------| 
d|---------------------------------------------------------------|
a|--------------------------------------6--6---------------------|
e|---4-4-4-4-4--6-6-6-6-6--8-8-8-8-8-8---------------------------|
                                                                  (x2)
g|----------------------------------------8--8-------------------| 
d|---------------------------------------------------------------|
a|--------------------------------------6--6---------------------|
e|---4-4-4-4-4--6-6-6-6-6--8-8-8-8-8-8---------------------------|

                          
[Verse]

1:20
 "...mona won't you..."
g|---------------------------------------------------------------| 
d|---------------------------------------------------------------|
a|---------------------------------------------------------------|
e|----6h8-8-8-8--6h8-8-8-8--6h8-8-8-8--6h8-8-8-8-----------------|

                            stop at 1:34


[Pre-Chorus] 

1:39
 "...power to compel me..."
g|---------------------------------------------------------------| 
d|---------------------------------------------------------------|
a|---------------------------------------------------------------|
e|---4~----6~----8~--------4~----6~----8\------------------------|


[Chorus]
 
1:49
 "...free from my jealousy..."
g|---------------------------------------------------------------| 
d|---------------------------------------------------------------|
a|--------------------------------------6--6---------------------|
e|---4-4-4-4-4--6-6-6-6-6--8-8-8-8-8-8---------------------------|
                                                                  (x2)
g|----------------------------------------8--8-------------------| 
d|---------------------------------------------------------------|
a|--------------------------------------6--6---------------------|
e|---4-4-4-4-4--6-6-6-6-6--8-8-8-8-8-8---------------------------|

[Bridge] 

2:08 
"I should be thinking..."
g|---------------------------------------------------------------| 
d|---------------------------------------------------------------|
a|---6----6------------------------------------------------------|
e|-------------8----8----6----6----2----2------------------------|

2:26 (speaking part)
g|---------------------------------------------------------------| 
d|---------------------------------------------------------------|
a|---------------------------------------------------------------| (x4)
e|----6h8-8-8-8--6h8-8-8-8--6h8-8-8-8--6h8-8-8-8*----------------|
on the last time, don't play the 8*

[Chorus]
 
2:46
"...free from my jealousy..."
g|---------------------------------------------------------------| 
d|---------------------------------------------------------------|
a|--------------------------------------6--6---------------------|
e|---4-4-4-4-4--6-6-6-6-6--8-8-8-8-8-8---------------------------|
                                                                  (x3)
g|----------------------------------------8--8-------------------| 
d|---------------------------------------------------------------|
a|--------------------------------------6--6---------------------|
e|---4-4-4-4-4--6-6-6-6-6--8-8-8-8-8-8---------------------------|


[Outro] 

3:16
g|---------------------------------------------------------------| 
d|---------------------------------------------------------------|
a|---------------------------------------------------------------|
e|----6h8-8-8-8--6h8-8-8-8--6h8-8-8-8--6h8-8-8-8-6---------------|
ends on the last 6

Rate and comment!
Suggest correction
comments
print report bad tab
guest
You may want to rate the tab now too:
select rating
Wanna post a correction for this tab? Suggest correction