Oops, an error
Loading. Please wait.

Send Them Off Bass Tab

760 views 57 this week
no commentswrite comment
1 2 3 4 5
x 5
add to favorites
launch autoscroll
font size
0
reset
guitar tuner
Autoscroll
slow
fast
+/-
esc
set tempo
stop
Help us to improve Ultimate-Guitar.com Take our survey!
×
Author
Difficulty
About this tab version
This is the first tab of the songs so far. It's simple, and I tried to make it as easy as possible. Was this info helpful? Yes No
Send Them Off! by Bastille from their new album Wild World.
I don't think the chorus is exactly right, so correct it if you think you know what it is. 
The rest of it should be right, it sounds almost perfect.

Tabbed by me, email me @ stroodleman8451@yahoo.com if you have any questions.

Intro: 

0:03 (speaking part)
g|---------------------------------------------------------------| 
d|---------------------------------------------------------------|
a|----1-3-3-3-3--1-3-3-3-3--1-3-3-3-3--1-3-3-3-3-----------------| x 3
e|---------------------------------------------------------------|

0:17 (play when the drums come in)
g|---------------------------------------------------------------| 
d|---------------------------------------------------------------|
a|-----------------0-1-1-1-1--1-3-3-3-3--1-3-3-3-3---------------|
e|---3-4-4-4-4---------------------------------------------------|


Verse: 

0:27 "I've got demons..."
g|---------------------------------------------------------------| 
d|---------------------------------------------------------------|
a|-----------------0-1-1-1-1--1-3-3-3-3--1-3-3-3-3---------------|
e|---3-4-4-4-4---------------------------------------------------|


Pre Chorus:

0:46 "Soak the ropes..."
g|---------------------------------------------------------------| 
d|---------------------------------------------------------------|
a|-----------1~-----3~------------------1~-----3\----------------|
e|---4~--------------------------4~------------------------------|


Chorus 0:56
"...free from my jealousy..."
g|---------------------------------------------------------------| 
d|---------------------------------------------------------------|
a|-----------------0-1-1-1-1--3-3-3-3-3--6~--6-6-----------------|
e|---4-4-4-4-4---------------------------------------------------|
                                                                  x2
g|---------------------------------------------------------------| 
d|---------------------------------------------------------------|
a|-----------------0-1-1-1-1--3-3-3-3-3--6~----------------------|
e|---4-4-4-4-4---------------------------------------------------|
                           stop at 1:14 


Verse: 1:20

 "...mona won't you..."
g|---------------------------------------------------------------| 
d|---------------------------------------------------------------|
a|-----------------0-1-1-1-1--1-3-3-3-3--1-3-3-3-3---------------|
e|---3-4-4-4-4---------------------------------------------------|
                            stop at 1:34


Pre Chorus: 1:39

 "...power to compel me..."
g|---------------------------------------------------------------| 
d|---------------------------------------------------------------|
a|-----------1~-----3~------------------1~-----3\----------------|
e|---4~--------------------------4~------------------------------|


Chorus: 1:49

 "...free from my jealousy..."
g|---------------------------------------------------------------| 
d|---------------------------------------------------------------|
a|-----------------0-1-1-1-1--3-3-3-3-3--6~--6-6-----------------|
e|---4-4-4-4-4---------------------------------------------------|
                                                                  x2
g|---------------------------------------------------------------| 
d|---------------------------------------------------------------|
a|-----------------0-1-1-1-1--3-3-3-3-3--6~----------------------|
e|---4-4-4-4-4---------------------------------------------------|


Bridge: 2:08 

"I should be thinking..."
g|---------------------------------------------------------------| 
d|---------------------------------------------------------------|
a|---6----6----3----3----1----1----------------------------------|
e|-------------------------------------3----3--------------------|

2:26 (speaking part)
g|---------------------------------------------------------------| 
d|---------------------------------------------------------------|
a|----1-3-3-3-3--1-3-3-3-3--1-3-3-3-3--1-3-3-3-3-----------------| x2
e|---------------------------------------------------------------|

2:36 (play when the horns come in)
g|---------------------------------------------------------------| 
d|---------------------------------------------------------------|
a|-----------------0-1-1-1-1--1-3-3-3-3--1-3-3-3-3*--------------| x2
e|---3-4-4-4-4---------------------------------------------------|
           on the second time, don't play the 3*


Final Chorus: 2:46

 "...free from my jealousy..."
g|---------------------------------------------------------------| 
d|---------------------------------------------------------------|
a|-----------------0-1-1-1-1--3-3-3-3-3--6~--6-6-----------------|
e|---4-4-4-4-4---------------------------------------------------|
                                                                    x4
g|---------------------------------------------------------------| 
d|---------------------------------------------------------------|
a|-----------------0-1-1-1-1--3-3-3-3-3--6~----------------------|
e|---4-4-4-4-4---------------------------------------------------|


Outro: 3:16
g|------------------------------------------------------------------| 
d|------------------------------------------------------------------|
a|----1-3-3-3-3--1-3-3-3-3--1-3-3-3-3--1-3-3-3-3--1-3---------------| 
e|------------------------------------------------------------------|
ends on the last 3

Rate and comment!
Suggest correction
comments
print report bad tab
guest
You may want to rate the tab now too:
select rating
Wanna post a correction for this tab? Suggest correction