Oops, an error
Loading. Please wait.

Send Them Off Tab

version 1
version 1

Intro

Whole song

445 views 12 this week
no commentswrite comment
1 2 3 4 5
x 6
add to favorites
launch autoscroll
font size
0
reset
how to read this tab
guitar tuner
×
Best way to learn
"Send Them Off"
Autoscroll
slow
fast
+/-
esc
set tempo
stop
Author
Difficulty
Capo
  follow
novice
3rd fret
Bastille - Send them off

E|-----------|-----------|-----------|
B|-----------|--1-----1--|--3--1-----|
G|--2--0--2--|-----2-----|--------2--|
D|-----------|-----------|-----------|
A|-----------|-----------|-----------|
E|-----------|-----------|-----------|

E|--------------|-----------|-----------|
B|--------------|--1-----1--|--3--1-----|
G|--0--2--0--2--|-----2-----|--------2--|
D|--------------|-----------|-----------|
A|--------------|-----------|-----------|
E|--------------|-----------|-----------|

Suggest correction
comments
print report bad tab
guest
You may want to rate the tab now too:
select rating
Wanna post a correction for this tab? Suggest correction