Oops, an error
Loading. Please wait.

Two Evils Tab

2,458 views 66 this week
1 commentread comment
1 2 3 4 5
x 4
add to favorites
launch autoscroll
font size
0
reset
how to read this tab
guitar tuner
Autoscroll
slow
fast
+/-
esc
set tempo
stop
Help us to improve Ultimate-Guitar.com Take our survey!
×
Author
Difficulty
intermediate
About this tab version
No other versions as its a new release, this is also a well tabbed version with accurate notes and even the kind of solo added. Was this info helpful? Yes No
Bastille - Two evils
Tabbed by Tim Robson

Off the new album Wild World
Play with a heavy tremelo effect.   


Verse: ("I'm the lesser of two evils..")

  G#m                       E                         C#m         G#m          
e|-------------------------|-------------------------|-------------------------|-------------------------|
B|-------------------------|-------------------------|-------5-----------4-----|-------------------------|
G|-------4-----------4-----|-------1-----------1-----|-----6---6-------4---4---|-------4-----------------|
D|-----6---6-------6---4---|-----2---2-------2---2---|---6-------6---6-------6-|-----6---6---------------|
A|---6-------6---6-------6-|---2-------2---2-------2-|-4-----------6-----------|---6-------6-------------|
E|-4-----------4-----------|-0-----------0-----------|-------------------------|-4-----------4-----2-----|

 G#m                       E                         C#m         G#m          
e|-------------------------|-------------------------|-------------------------|-------------------------|
B|-------------------------|-------------------------|-------5-----------4-----|-------------------------|
G|-------4-----------4-----|-------1-----------1-----|-----6---6-------4---4---|-------4-----------------|
D|-----6---6-------6---4---|-----2---2-------2---2---|---6-------6---6-------6-|-----6---6---------------|
A|---6-------6---6-------6-|---2-------2---2-------2-|-4-----------6-----------|---6-------6-------------|
E|-4-----------4-----------|-0-----------0-----------|-------------------------|-4-----------------------|



Chorus: ("There are two ways..")

  C#m          G#m          F#           G#m          C#m          G#m          F#           G#m          
e|-------------------------|-------------------------|-------------------------|-------------------------|
B|-------------------------|-------------------------|-------------------------|-------------------------|
G|-----------4-------4-----|-------3-----------4-----|-----------4-------4-----|-------3-----------------|
D|-------4-6-------6---6---|-----4---4-------6---6---|-------4-6-------6---6---|-----4-----------6-------|
A|-2/4-6---------6-------6-|---4-------4---6-------6-|-2/4-6---------6-------6-|---4-----------6---------|
E|-------------4-----------|-2-----------4-----------|-------------4-----------|-2-----------4-----------|

("You and I..")
  C#m          G#m          F#           G#m          C#m          G#m          F#           G#m          
e|-------------------------|-------------------------|-------------------------|-------------------------|
B|----5~-------------------|-------------------------|----5~-------------------|-------------------------|
G|---6~-----------4~-------|----3~-----------4~------|---6~-----------4~-------|----3~-----------4~------|
D|--6~-----------6~--------|---4~-----------6~-------|--6~-----------6~--------|---4~-----------6~-------|
A|-4~-----------6~---------|--4~-----------6~--------|-4~-----------6~---------|--4~-----------6~--------|
E|-------------4~----------|-2~-----------4~---------|-------------4~----------|-2~-----------4~---------|



 Bridge: 

Guitar 1:
  G#m                       E                         C#m         G#m          
e|-------------------------|-------------------------|-------------------------|-------------------------|
B|-------------------------|-------------------------|-------5-----------4-----|-------------------------|
G|-------4-----------4-----|-------1-----------1-----|-----6---6-------4---4---|-------4-----------------|
D|-----6---6-------6---4---|-----2---2-------2---2---|---6-------6---6-------6-|-----6---6---------------|
A|---6-------6---6-------6-|---2-------2---2-------2-|-4-----------6-----------|---6-------6-------------|
E|-4-----------4-----------|-0-----------0-----------|-------------------------|-4-----------4-----------|

Guitar 2:
e|-------------------------|-------------------------|-------------------------|-------------------------|
B|--4----------------------|-------------------------|-------------------------|-------------------------|
G|--6b8~-------6-----4-----|-------------------------|-------------------------|-------------------------|
D|-------------------------|-4h6---------------------|-------------------------|-------------------------|
A|-------------------------|-------------------------|-------------------------|-------------------------|
E|-------------------------|-------------------------|-------------------------|-------------------------|



Verse 2: ("I'm the lesser of two evils..")

  G#m                       E                         C#m         G#m          
e|-------------------------|-------------------------|-------------------------|-------------------------|
B|-------------------------|-------------------------|-------5-----------4-----|-------------------------|
G|-------4-----------4-----|-------1-----------1-----|-----6---6-------4---4---|-------4-----------------|
D|-----6---6-------6---4---|-----2---2-------2---2---|---6-------6---6-------6-|-----6---6---------------|
A|---6-------6---6-------6-|---2-------2---2-------2-|-4-----------6-----------|---6-------6-------------|
E|-4-----------4-----------|-0-----------0-----------|-------------------------|-4-----------4-----2-----|

 G#m                       E                         C#m         G#m          
e|-------------------------|-------------------------|-------------------------|-------------------------|
B|-------------------------|-------------------------|-------5-----------4-----|-------------------------|
G|-------4-----------4-----|-------1-----------1-----|-----6---6-------4---4---|-------4-----------------|
D|-----6---6-------6---4---|-----2---2-------2---2---|---6-------6---6-------6-|-----6---6---------------|
A|---6-------6---6-------6-|---2-------2---2-------2-|-4-----------6-----------|---6-------6-------------|
E|-4-----------4-----------|-0-----------0-----------|-------------------------|-4-----------------------|



Chorus: ("There are two ways..")

  C#m          G#m          F#           G#m          C#m          G#m          F#           G#m          
e|-------------------------|-------------------------|-------------------------|-------------------------|
B|-------------------------|-------------------------|-------------------------|-------------------------|
G|-----------4-------4-----|-------3-----------4-----|-----------4-------4-----|-------3-----------------|
D|-------4-6-------6---6---|-----4---4-------6---6---|-------4-6-------6---6---|-----4-----------6-------|
A|-2/4-6---------6-------6-|---4-------4---6-------6-|-2/4-6---------6-------6-|---4-----------6---------|
E|-------------4-----------|-2-----------4-----------|-------------4-----------|-2-----------4-----------|

("You and I..")
  C#m          G#m          F#           G#m          C#m          G#m          F#           G#m          
e|-------------------------|-------------------------|-------------------------|-------------------------|
B|----5~-------------------|-------------------------|----5~-------------------|-------------------------|
G|---6~-----------4~-------|----3~-----------4~------|---6~-----------4~-------|----3~-----------4~------|
D|--6~-----------6~--------|---4~-----------6~-------|--6~-----------6~--------|---4~-----------6~-------|
A|-4~-----------6~---------|--4~-----------6~--------|-4~-----------6~---------|--4~-----------6~--------|
E|-------------4~----------|-2~-----------4~---------|-------------4~----------|-2~-----------4~---------|


Outro:

("You and I..")
  C#m          G#m          F#                     
e|-------------------------|-------------------------|
B|----5~-------------------|-------------------------|
G|---6~-----------4~-------|----3~-------------------|
D|--6~-----------6~--------|---4~--------------------|
A|-4~-----------6~---------|--4~---------------------|
E|-------------4~----------|-2~----------------------|

***********************************
| /   Slideup
| b   Bend
| h   Hammer-on
| ~   Vibrato
***********************************
Suggest correction
comments
print report bad tab
1 comment total.
0 reply
squeej95 10 Sep 24, 2016 08:49 PM

Excellent tab! Definitely my favorite track off the new album. Nice work!

guest
You may want to rate the tab now too:
select rating
Wanna post a correction for this tab? Suggest correction