Oops, an error
Loading. Please wait.

Warmth Bass Tab

439 views 15 this week
no commentswrite comment
1 2 3 4 5
x 3
add to favorites
launch autoscroll
font size
0
reset
guitar tuner
Autoscroll
slow
fast
+/-
esc
set tempo
stop
Help us to improve Ultimate-Guitar.com Take our survey!
×
Author
Difficulty
About this tab version
This the is first version of this song. Was this info helpful? Yes No
Tabbed by Asa Wentworth, email me @ stroodleman8451@yahoo.com

Song: Warmth
Band: Bastille
Album: Wild World
Tuning: Standard

0:15
g|-------------------------------------------------------------------------| 
d|-------------------------------------------------------------------------|
a|-------------------------------------2-2-2-2-2-2-2-2---------------------|
e|---4-4-4-4-4-4-4-4--2-2-2-2-2-2-2-2-------------------0-0-0-0-0-0-0-0----|

g|-------------------------------------------------------------------------| 
d|-------------------------------------------------------------------------|
a|-------------------------------------2-2-2-2-2-2-2-2--7-7-7-7-7-7-7-7----|
e|---4-4-4-4-4-4-4-4--2-2-2-2-2-2-2-2--------------------------------------|

Verse:

0:29
"Never good, just the bad..."
g|----------------------------------------------------------------------------------------------------------| 
d|----------------------------------------------------------------------------------------------------------|
a|-2-2-2-2---2-2-2--2-2-2-------------------------------------------------2-2-2-2-2-2-2---2-2-2-2-2-2-2-2---|
e|-------------------------2-2-2-2---2-2-2--2-2-2--0-0-0-0---0-0-0--0-0-0---------------4-----------------2-|
x2 the timing is a little weird, just listen to it

0:56
"...about it..."
g|------------------------------------------------------------------------| 
d|------------------------------------------------------------------------|
a|--2-2-2---2-1----------2-1----------2-1-2-4---6-------------------------|
e|--------2-----4-2----2-----2-0----2--------------4----------------------|
pay attention to the timing here too, it can be tricky

Chorus:

1:24
"Hold me in this wild, wild world..."
g|-------------------------------------------------------------------------| 
d|-------------------------------------------------------------------------|
a|-------------------------------------2-2-2-2-2-2-2-2---------------------|
e|---4-4-4-4-4-4-4-4--2-2-2-2-2-2-2-2-------------------0-0-0-0-0-0-0-0----|

g|-------------------------------------------------------------------------| 
d|-------------------------------------------------------------------------|
a|-------------------------------------2-2-2-2-2-2-2-2--7-7-7-7-7-7-7-7----|
e|---4-4-4-4-4-4-4-4--2-2-2-2-2-2-2-2--------------------------------------|

stop at 1:37

Verse:

1:41
"...let's forget..."
g|----------------------------------------------------------------------------------------------------------| 
d|----------------------------------------------------------------------------------------------------------|
a|-2-2-2-2---2-2-2--2-2-2-------------------------------------------------2-2-2-2-2-2-2---2-2-2-2-2-2-2-2---|
e|-------------------------2-2-2-2---2-2-2--2-2-2--0-0-0-0---0-0-0--0-0-0---------------4-----------------2-|
x2

"...about it..."
g|------------------------------------------------------------------------| 
d|------------------------------------------------------------------------|
a|--2-2-2---2-1----------2-1----------2-1-2-4------6----------------------|
e|--------2-----4-2----2-----2-0----2-------------------------------------|

Chorus:

2:22
"Hold me in this wild, wild world..."
g|-------------------------------------------------------------------------| 
d|-------------------------------------------------------------------------|
a|-------------------------------------2-2-2-2-2-2-2-2---------------------|
e|---4-4-4-4-4-4-4-4--2-2-2-2-2-2-2-2-------------------0-0-0-0-0-0-0-0----|
                                                                            x2
g|-------------------------------------------------------------------------| 
d|-------------------------------------------------------------------------|
a|-------------------------------------2-2-2-2-2-2-2-2--7-7-7-7-7-7-7-7----|
e|---4-4-4-4-4-4-4-4--2-2-2-2-2-2-2-2--------------------------------------|

stop at 2:49

Final Chorus

3:03
g|-------------------------------------------------------------------------| 
d|-------------------------------------------------------------------------|
a|-------------------------------------2-2-2-2-2-2-2-2---------------------|
e|---4-4-4-4-4-4-4-4--2-2-2-2-2-2-2-2-------------------0-0-0-0-0-0-0-0----|

g|-------------------------------------------------------------------------| 
d|-------------------------------------------------------------------------|
a|-------------------------------------2-2-2-2-2-2-2-2--7-7-7-7-7-7-7-7----|
e|---4-4-4-4-4-4-4-4--2-2-2-2-2-2-2-2--------------------------------------|

this repeats until the end of the song

3:44
g|---------------------------------------| 
d|---------------------------------------|
a|-7-7-7-7-7-7-7-7-7-7-8-8-9-9-10-10-----|
e|---------------------------------------|
right at the very end it does this really quickly coming off of the last 7
Suggest correction
Give kudos to tab author, rate the tab!
1 2 3 4 5
comments
print report bad tab
guest
You may want to rate the tab now too:
select rating
Wanna post a correction for this tab? Suggest correction