Oops, an error
Loading. Please wait.

Way Beyond Bass Tab

247 views 3 this week
no commentswrite comment
1 2 3 4 5
1 last vote to show rating
add to favorites
launch autoscroll
font size
0
reset
guitar tuner
Autoscroll
slow
fast
+/-
esc
set tempo
stop
Help us to improve Ultimate-Guitar.com Take our survey!
×
Author
Difficulty
About this tab version
First version of this song. It should be 100% accurate. Was this info helpful? Yes No
Tabbed by Asa Wentworth, email me @ stroodleman8451@yahoo.com

Song: Way Beyond (Bonus Track)
Artist: Bastille
Album: Wild World
Tuning: Standard

Verse:

0:09
"The animals break out..."
g|--------------------------------------------------------------| 
d|------6-6-9-----6-----4-6-6-6--6-6-9-----6-----4-6-6-4--------|
a|------------7-7---4-4----------------7-7---4-4----------------|
e|--------------------------------------------------------------|
repeat until pre chorus

Pre Chorus:

0:48
"Have you and I..."
g|---------------------------------------------------------------| 
d|-------------4---6~--------------4---9---11--------------------|
a|------7~------------------7~-----------------------------------|
e|---------------------------------------------------------------|

Chorus:

0:57
"...care now..."
g|----------------------------------------------------------| 
d|----------------------------------------------------------|
a|---2-2-2-2--7-7-7-7--9-9-9-9--11-11-11-11-11--------------|
e|----------------------------------------------------------|
                                                             x2
g|----------------------------------------------------------| 
d|----------------------------------------------------------|
a|---7-7-7-7--4-4-4-4--11-11-11-11--9-9-9-9-----------------|
e|----------------------------------------------------------|

1:20
g|------------------------| 
d|---------9-8------------|
a|---------------9--------|
e|------------------------|

Verse:

"Movies and news..."
1:21
g|--------------------------------------------------------------| 
d|------6-6-9-----6-----4-6-6-6--6-6-9-----6-----4-6-6-4--------|
a|------------7-7---4-4----------------7-7---4-4----------------|
e|--------------------------------------------------------------|
repeat until pre chorus


Pre Chorus

1:40
"Have you and I..."
g|---------------------------------------------------------------| 
d|-------------4---6~--------------4---9---11--------------------|
a|------7~------------------7~-----------------------------------|
e|---------------------------------------------------------------|

Chorus

1:50
"...care now..."
g|----------------------------------------------------------| 
d|----------------------------------------------------------|
a|---2-2-2-2--7-7-7-7--9-9-9-9-11--11-11-11-11--------------|
e|----------------------------------------------------------|
                                                             x2
g|----------------------------------------------------------| 
d|----------------------------------------------------------|
a|---7-7-7-7--4-4-4-4--11-11-11-11--9-9-9-9-----------------|
e|----------------------------------------------------------|

Bridge

2:09
"...dumb..."
g|---------------------------------------------------------------| 
d|--------------4-4--------6-6--4-6-4----------------------------|
a|---2-2--2-4-6------4-6-4---------------------1-----------------| x2
e|------------------------------------0-0--2-4-------------------|

Final Chorus

2:31
"...care now..."
g|----------------------------------------------------------| 
d|----------------------------------------------------------|
a|---2-2-2-2--7-7-7-7--9-9-9-9-11--11-11-11-11--------------|
e|----------------------------------------------------------|
                                                             x4
g|----------------------------------------------------------| 
d|----------------------------------------------------------|
a|---7-7-7-7--4-4-4-4--11-11-11-11--9-9-9-9-----------------|
e|----------------------------------------------------------|

That's it!

Rate and comment!
Suggest correction
Give kudos to tab author, rate the tab!
1 2 3 4 5
comments
print report bad tab
guest
You may want to rate the tab now too:
select rating
Wanna post a correction for this tab? Suggest correction