Oops, an error
Loading. Please wait.

Winter Of Our Youth Tab

1,285 views 9 this week
no commentswrite comment
1 2 3 4 5
x 4
add to favorites
×
Save as Personal and add changes to this tab that will be seen only by you. Learn more ›
launch autoscroll
font size
0
reset
how to read this tab
guitar tuner
Autoscroll
slow
fast
+/-
esc
set tempo
stop
Difficulty
novice
About this tab version
This the is first version of this song. It's simplified it as much as it can be could, it's very easy. Was this info helpful? Yes No
Winter of Our Youth by Bastille, from their new album Wild World.
This guitar riff is really cool and easy, so I hope you guys enjoy this tab.

Tabbed by me, email me @ stroodleman8451@yahoo.com


Intro:

0:00
e|---------------------------------------------------------------| 
b|---------------------------------------------------------------|
g|---------------------------------------------------------------|
d|---------------------------------------------------------------| x2
a|-----6-7-6------6-7-6-----6-7-6------6-7-6---------------------|
e|---0----------7---------2----------4---------------------------|

Verse:

0:14
"This is the winter of our youth..."
g|-----------------------|
d|-----------------------|
a|---6----4----9---------| x2
e|---4----2----7---------|

Pre Chorus:

0:28
"Oh, my, my, my ,my"
e|-----------------------------------------------------------| 
b|-----------------------------------------------------------|
g|-----------------------------------------------------------| 
d|-----------------------------------------------------------|
a|------4-6\---2-4-2-------4-6-4-7-6-4-2---------------------|
e|---7-------------------7-----------------------------------|


Chorus:

0:41
"I know the winter's getting colder..."
e|---------------------------------------------------------------| 
b|---------------------------------------------------------------|
g|---------------------------------------------------------------|
d|---------------------------------------------------------------| x4
a|-----6-7-6------6-7-6-----6-7-6------6-7-6---------------------|
e|---0----------7---------2----------4---------------------------|

e|---------------------------------------------------------------| 
b|---------------------------------------------------------------|
g|---------------------------------------------------------------|
d|---------------------------------------------------------------| x2
a|-----6-7-6------6-7-6-----6-7-6------6-7-6---------------------|
e|---0----------7---------2----------4---------------------------|

Verse:

1:16
"It's 4 A.M. here comes..."
g|-------------------------|
d|-------------------------|
a|---6----4----9----2------| x2
e|---4----2----7----0------|

Pre Chorus
Chorus

Bridge:

2:12
"I let myself bathe in the past..."
e|-----------------------------------| 
b|-----------------------------------| 
g|-----------------------------------| 
d|---2----6----2----6--3-------------| x2
a|---2----6----2----6--3-------------|
e|---0----4----0----4--1-------------|

Chorus
guitar stops at 2:54

That's all there is to it! Hope it helps

Rate and comment!
Suggest correction
comments
print report bad tab
guest
You may want to rate the tab now too:
select rating
Wanna post a correction for this tab? Suggest correction