Oops, an error
Loading. Please wait.

Call From The Grave tab

version 1
version 1

Whole song

Interactive

by Bathory
12,562 views 18 this week
no commentswrite comment
1 2 3 4 5
x 3
add to favorites
×
Save as Personal and add changes to this tab that will be seen only by you. Learn more ›
×
You can save this tab as Personal to edit and correct it or add notes. All changes will be seen only by you. Learn more »
launch autoscroll
font size
0
reset
how to read this tab
guitar tuner
backing track
0:00
0:00
edit
Autoscroll
slow
fast
+/-
esc
set tempo
stop
Author
Unregistered
"CALL FROM THE GRAVE"
music by BATHORY, lyrics by Quorthon

transcribed by Lord Diabolus Noctifer
e-mail:a9847545@unet.univie-ac.at


[Riff 1]
(starting riff)

e|----------------------|
B|----------------------|
G|----------------------|
D|4-444-------------66/5|
A|2-222-4-4-3-3-3-3-44/3|
E|------2-2-1-1-1-1-----|


[Riff 2]

1.Git.
e|-------------------------------|
B|-------------------------------|
G|-------------------------------|
D|8-8-8-8/9-9-9-9\8-8-8-8\7-7-7-7|
A|6-6-6-6/7-7-7-7\6-6-6-6\5-5-5-5|
E|6-6-6-6/7-7-7-7\6-6-6-6\5-5-5-5|

2.Git.
e|-------------------------------|
B|-------------------------------|
G|-------------------------------|
D|8-8-8-8-8-8/9-9\8-8-8-8\7-7-7-7|
A|6-6-6-6-6-6/7-7\6-6-6-6\5-5-5-5|
E|6-6-6-6-6-6/7-7\6-6-6-6\5-5-5-5|


[Riff 3]

e|---------------------------|
B|---------------------------|
G|---------------------------|
D|10-777-10-777-10-777-10-999|
A|-8-555--8-555--8-555--8-777|
E|-8-555--8-555--8-555--8-777|


[Riff 4]

e|-----------------------------------------------|
B|-----------------------------------------------|
G|-----------------------------------------------|
D|7-7-7-7-7-7-7-7\5-5-5-5/7-7-7-7-------------5-5|
A|5-5-5-5-5-5-5-5\3-3-3-3/5-5-5-5-8-8-8-8-7-7-3-3|
E|--------------------------------6-6-6-6-5-5----|


[Riff 5]

     A                    B
e|--------|          e|--------|
B|--------|          B|--------|
G|--------|          G|--------|
D|--------|          D|--------|
A|2-2--3-3|          A|7-7--8-8|
E|0-0--1-1|          E|5-5--6-6|


[Solo 2]

e|10---10-h13-p12-h12-p10-h10---10------------------|
B|--------------------------------------------------|
G|--------------------------------------------------|
D|--------------------------------------------------|
A|--------------------------------------------------|
E|--------------------------------------------------|

e|13---13-h17-p15-h15-p13-h13---13------------------|
B|--------------------------------------------------|
G|--------------------------------------------------|
D|--------------------------------------------------|
A|--------------------------------------------------|
E|--------------------------------------------------|

e|h10----------------------h10----------------------|
B|----p13-h11-p10-h10----------p13-h11-p10-h10------|
G|--------------------------------------------------|
D|--------------------------------------------------|
A|--------------------------------------------------|
E|--------------------------------------------------|

e|h17-p15-h13-p12-h12------h17-p15-h13-p12-h12-h13|
B|------------------------------------------------|
G|------------------------------------------------|
D|------------------------------------------------|
A|------------------------------------------------|
E|------------------------------------------------|

Abblauf:

Riff 1  x4
Riff 2  x6
Riff 1  x4
Riff 2  x6
Riff 3  x8
Riff 4  x4       glzt. Solo1
Riff 5  x16      glzt. Solo2
Riff 1  x4
Riff 3  x8



************************************

| /  Slide up
| \  Slide down
| h  Hammer-on
| p  Pull-off

************************************
Suggest correction
Creating personal tab
Creating personal tab
You can edit any tab online and save it as your Personal.

You can edit, replace or remove any tab part or add personal notes – all changes will be seen only by you.

Personal tabs can be accessed anytime from any device, even offline.
Learn more »
Give kudos to tab author, rate the tab!
1 2 3 4 5
comments
print report bad tab
guest
Wanna post a correction for this tab? Suggest correction