Oops, an error
Loading. Please wait.

Enter The Eternal Fire bass

version 1
version 1

Whole song

Interactive

by Bathory
16 views 3 this week
no commentswrite comment
1 2 3 4 5
3 more votes to show rating
add to favorites
×
Save as Personal and add changes to this tab that will be seen only by you. Learn more ›
×
You can save this tab as Personal to edit and correct it or add notes. All changes will be seen only by you. Learn more »
launch autoscroll
font size
0
reset
guitar tuner
edit
Autoscroll
slow
fast
+/-
esc
set tempo
stop
Artist : Bathory
Album : Under The Sign Of The Black Mark
Song : Woman Of Dark Desires
Year : 1987
Tuning : EbAbDbGb (D#)

[Intro]
Gb|-------------------------|-------------------------|
Db|-------------------------|-------------------------| (x4)
Ab|-------------------------|-----------2--2--2-------|
Eb|--0--0--0--2--2--2---4~--|--0--0--0------------2~--|

Gb|-----------|
Db|-----------|
Ab|-------6~--|
Eb|--0~-------|

Gb|----------------------------------------------------------|
Db|----------------------------------------------------------| (x2)
Ab|--6--6--6--4--4--6--6--6--4--4--6--6--6--4--4--6h7---6h7--|
Eb|----------------------------------------------------------|

Gb|---------------------------------------------------------------------------|
Db|---------------------------------------------------------------------------|
Ab|--6---6--6--6--6---4---2---2--2--2--2---1---4---4--4--4--7--7--7--7--7--4--|
Eb|---------------------------------------------------------------------------|

Gb|----------------------------------------------------------|
Db|----------------------------------------------------------| (x2)
Ab|--6--6--6--4--4--6--6--6--4--4--6--6--6--4--4--6h7---6h7--|
Eb|----------------------------------------------------------|

[Verse]
Gb|---------------------------------------------------------------------------|
Db|---------------------------------------------------------------------------|
Ab|--6---6--6--6--6---4---2---2--2--2--2---1---4---4--4--4--7--7--7--7--7--4--|
Eb|---------------------------------------------------------------------------|

Gb|----------------------------------------------------------|
Db|----------------------------------------------------------|
Ab|--6--6--6--4--4--6--6--6--4--4--6--6--6--4--4--6h7---6h7--|
Eb|----------------------------------------------------------|

Gb|---------------------------------------------------------------------------|
Db|---------------------------------------------------------------------------|
Ab|--6---6--6--6--6---4---2---2--2--2--2---1---4---4--4--4--7--7--7--7--7--4--|
Eb|---------------------------------------------------------------------------|

Gb|----------------------------------------------------------|
Db|----------------------------------------------------------| (x2)
Ab|--6--6--6--4--4--6--6--6--4--4--6--6--6--4--4--6h7---6h7--|
Eb|----------------------------------------------------------|

Gb|---------------------------------------------------------------------------|
Db|---------------------------------------------------------------------------|
Ab|--6---6--6--6--6---4---2---2--2--2--2---1---4---4--4--4--7--7--7--7--7--4--|
Eb|---------------------------------------------------------------------------|

Gb|----------------------------------------------------------|
Db|----------------------------------------------------------|
Ab|--6--6--6--4--4--6--6--6--4--4--6--6--6--4--4--6h7---6h7--|
Eb|----------------------------------------------------------|

Gb|---------------------------------------------------------------------------|
Db|---------------------------------------------------------------------------|
Ab|--6---6--6--6--6---4---2---2--2--2--2---1---4---4--4--4--7--7--7--7--7--4--|
Eb|---------------------------------------------------------------------------|

Gb|----------------------------------------------------------|
Db|----------------------------------------------------------| (x2)
Ab|--6--6--6--4--4--6--6--6--4--4--6--6--6--4--4--6h7---6h7--|
Eb|----------------------------------------------------------|

Gb|--------------------------------------------------------------------------------|
Db|--------------------------------------------------------------------------------|
Ab|--6---6--6--6--6---------------------------------------------------0---0--0--0--|
Eb|--------------------1---2---2--2--2--2---2--2--2---0---0--0--0--0---------------|

Gb|----------------------------------------------------------|
Db|----------------------------------------------------------|
Ab|--6--6--6--4--4--6--6--6--4--4--6--6--6--4--4--6h7---6h7--|
Eb|----------------------------------------------------------|

Gb|--------------------------------------------------------------------------------|
Db|--------------------------------------------------------------------------------|
Ab|--6---6--6--6--6---------------------------------------------------0---0--0--0--|
Eb|--------------------1---2---2--2--2--2---2--2--2---0---0--0--0--0---------------|

[Chorus]
Gb|--------------------------------|
Db|--------------------------------|
Ab|--6--6--6--4--4--6--6--6--4--4--|
Eb|--------------------------------|

Gb|---------------------------------------------------------------------------|
Db|---------------------------------------------------------------------------|
Ab|-----------------------0--0~--0--0-----------0--0~--0--0-------------------|
Eb|--2~--2--2---0--0--0---------------4--4--4---------------4~--4--4---2---0--|


Gb|----------------------------------------------------------|
Db|----------------------------------------------------------| (x4)
Ab|--6--6--6--4--4--6--6--6--4--4--6--6--6--4--4--6h7---6h7--|
Eb|----------------------------------------------------------|

[Verse]
Gb|---------------------------------------------------------------------------|
Db|---------------------------------------------------------------------------|
Ab|--6---6--6--6--6---4---2---2--2--2--2---1---4---4--4--4--7--7--7--7--7--4--|
Eb|---------------------------------------------------------------------------|

Gb|----------------------------------------------------------|
Db|----------------------------------------------------------|
Ab|--6--6--6--4--4--6--6--6--4--4--6--6--6--4--4--6h7---6h7--|
Eb|----------------------------------------------------------|

Gb|---------------------------------------------------------------------------|
Db|---------------------------------------------------------------------------|
Ab|--6---6--6--6--6---4---2---2--2--2--2---1---4---4--4--4--7--7--7--7--7--4--|
Eb|---------------------------------------------------------------------------|

Gb|----------------------------------------------------------|
Db|----------------------------------------------------------| (x2)
Ab|--6--6--6--4--4--6--6--6--4--4--6--6--6--4--4--6h7---6h7--|
Eb|----------------------------------------------------------|

Gb|--------------------------------------------------------------------------------|
Db|--------------------------------------------------------------------------------|
Ab|--6---6--6--6--6---------------------------------------------------0---0--0--0--|
Eb|--------------------1---2---2--2--2--2---2--2--2---0---0--0--0--0---------------|

Gb|----------------------------------------------------------|
Db|----------------------------------------------------------|
Ab|--6--6--6--4--4--6--6--6--4--4--6--6--6--4--4--6h7---6h7--|
Eb|----------------------------------------------------------|

Gb|--------------------------------------------------------------------------------|
Db|--------------------------------------------------------------------------------|
Ab|--6---6--6--6--6---------------------------------------------------0---0--0--0--|
Eb|--------------------1---2---2--2--2--2---2--2--2---0---0--0--0--0---------------|

[Chorus]
Gb|--------------------------------|
Db|--------------------------------|
Ab|--6--6--6--4--4--6--6--6--4--4--|
Eb|--------------------------------|

Gb|---------------------------------------------------------------------------|
Db|---------------------------------------------------------------------------|
Ab|-----------------------0--0~--0--0-----------0--0~--0--0-------------------|
Eb|--2~--2--2---0--0--0---------------4--4--4---------------4~--4--4---2---0--|

Gb|----------------------------------------------------------|
Db|----------------------------------------------------------| (x4)
Ab|--6--6--6--4--4--6--6--6--4--4--6--6--6--4--4--6h7---6h7--|
Eb|----------------------------------------------------------|

[Break]
Gb|------|---------------------------------------------|
Db|------|---------------------------------------------|
Ab|--6~--|--6--8--9~---9--8--6~---6--8--9~---9--9--6~--|
Eb|------|---------------------------------------------|

Gb|------------------------------------------------------------------------------------------|
Db|------------------------------------------------------------------------------------------|
Ab|--6--8--9~---9--8--6~---6--8--9~---9--9---6--6--6--6--6--6--6--6--6--6--6--6--6--6--6--6--|
Eb|------------------------------------------------------------------------------------------|

[Interlude]
Gb|----------------------------------------------------------|
Db|----------------------------------------------------------| (x4)
Ab|--6--6--6--4--4--6--6--6--4--4--6--6--6--4--4--6h7---6h7--|
Eb|----------------------------------------------------------|

Gb|--------------------------------------------------------------------------------|
Db|--------------------------------------------------------------------------------|
Ab|--6---6--6--6--6---------------------------------------------------0---0--0--0--|
Eb|--------------------1---2---2--2--2--2---2--2--2---0---0--0--0--0---------------|

Gb|----------------------------------------------------------|
Db|----------------------------------------------------------|
Ab|--6--6--6--4--4--6--6--6--4--4--6--6--6--4--4--6h7---6h7--|
Eb|----------------------------------------------------------|

Gb|--------------------------------------------------------------------------------|
Db|--------------------------------------------------------------------------------|
Ab|--6---6--6--6--6---------------------------------------------------0---0--0--0--|
Eb|--------------------1---2---2--2--2--2---2--2--2---0---0--0--0--0---------------|

[Verse]
Gb|---------------------------------------------------------------------------------------------------|
Db|---------------------------------------------------------------------------------------------------|
Ab|--6--6--6--4--4--6--6--6--4--4---------------------------------------------------------------------|
Eb|---------------------------------1--1--1--1--1--1--1--1--1--1h2----1--1--1--1--1--1--1--1--1--1h2--|

Gb|---------------------------------------------------------------|
Db|---------------------------------------------------------------|
Ab|---------------------------------------------------------------|
Eb|--1--1--1--1--1--1--1--1--0----1--1--1--1--1--1--1--1--1--1h2--|

Gb|--------------------------------------------------------------------|
Db|--------------------------------------------------------------------| (x2)
Ab|--------------------------------------------------------------------|
Eb|--3--3--3--3--3--3--3--3--3--3h2----3--3--3--3--3--3--3--3--3--3h4--|

Gb|--------------------------------------------------------------------|
Db|--------------------------------------------------------------------| (x2)
Ab|--------------------------------------------------------------------|
Eb|--5--5--5--5--5--5--5--5--5--5h4----5--5--5--5--5--5--5--5--5--5h6--|

[Ending]
Gb|-----------------------------------------------------------------|
Db|-----------------------------------------------------------------|
Ab|--6--6--6--4--4--6--6--6--4--4---7h6--6--6h4--4--4h2--2--2h1--1--|
Eb|-----------------------------------------------------------------|

Gb|----------------------------------------------------------------|
Db|--------------------------------1h2--2--2h4--4--4h6--6--6h4--4--|
Ab|--6--6--6--4--4--6--6--6--4--4----------------------------------|
Eb|----------------------------------------------------------------|

Gb|-----------------------------------------------------------------|
Db|-----------------------------------------------------------------|
Ab|--6--6--6--4--4--6--6--6--4--4---7h6--6--6h4--4--4h2--2--2h1--1--|
Eb|-----------------------------------------------------------------|

Gb|---------------------------------------------------------------------|
Db|--------------------------------1h2--2--2h4--4--4h6--6--6h4--4---1~--|
Ab|--6--6--6--4--4--6--6--6--4--4---------------------------------------|
Eb|---------------------------------------------------------------------|


************************************

| h  Hammer-on
| ~  Vibrato

************************************

            
            
Suggest correction
Creating personal tab
Creating personal tab
You can edit any tab online and save it as your Personal.

You can edit, replace or remove any tab part or add personal notes – all changes will be seen only by you.

Personal tabs can be accessed anytime from any device, even offline.
Learn more »
Give kudos to tab author, rate the tab!
1 2 3 4 5
comments
print report bad tab
guest
You may want to rate the tab now too:
select rating
Wanna post a correction for this tab? Suggest correction