Oops, an error
Loading. Please wait.

Flash Of The Silverhammer Tab

version 1
version 1

Whole song

Interactive

261 views 3 this week
no commentswrite comment
1 2 3 4 5
3 more votes to show rating
add to favorites
launch autoscroll
font size
0
reset
how to read this tab
guitar tuner
Autoscroll
slow
fast
+/-
esc
set tempo
stop
Help us to improve Ultimate-Guitar.com Take our survey!
×
Author
Difficulty
Tuning
novice
C G C F A D
band: Bathory
song: Flash of the Silver-Hammer
album: Nordland II
genre: viking metal
year: 2003

disclaimer: I do not own anything related to Bathory. I'm just a fan who loves viking
metal and have been a bit miffed at the lack of tabs for Quorthon's viking songs. So here
I am again with another Bathory tab. Special thanks to YouTube user swedisheinherjer and 
Ancient Ascendant for putting me on the right path with this song.

tuning is drop C for this tab (C G C F A D), but this can be played in C tuning, just
change the dropped chords to power chords and everything above low C is moved down the
neck (towards your strumming hand) two frets.

(main riff)
D|----------------------------|---------------------------------------|
A|----------------------------|---------------------------------------|
F|----------------------------|---------------------------------5-----|
C|----------------------------|---------------------------------5-----|
G|---0-0-0-0--0--0-0-0-0--0---|---0-0-0-0--0--0-0-0-0--0--------3-----|
C|---0-0-0-0--0--0-0-0-0--0---|---0-0-0-0--0--0-0-0-0--0--0-0-0-------|

D|------------------------------------|------------------------------------|
A|------------------------------------|------------------------------------|
F|------------------------------------|----------------------------5\4/5---|
C|------------------------------------|---3------3-5------3-2------5\4/5---|
G|---0-0-0-0--0--0-0-0-0--0-----------|---3------3-5------3-2------3\2/3---|
C|---0-0-0-0--0--0-0-0-0--0---0-0-0-0-|---3--0-0-3-5--0-0-3-2--0-0---------|

D|----------------------------|---------------------------------------|
A|----------------------------|---------------------------------------|
F|----------------------------|---------------------------------5-----|
C|----------------------------|---------------------------------5-----|
G|---0-0-0-0--0--0-0-0-0--0---|---0-0-0-0--0--0-0-0-0--0--------3-----|
C|---0-0-0-0--0--0-0-0-0--0---|---0-0-0-0--0--0-0-0-0--0--0-0-0-------|

D|------------------------------------|------------------------------------|
A|------------------------------------|------------------------------------|
F|------------------------------------|------------------------------------|
C|------------------------------------|---3------3-5------3-2------2--3----|
G|---0-0-0-0--0--0-0-0-0--0-----------|---3------3-5------3-2------2--3----|
C|---0-0-0-0--0--0-0-0-0--0---0-0-0-0-|---3--0-0-3-5--0-0-3-2--0-0-2--3----|

(chorus riff)
D|-------------------------------------------------|
A|-------------------------------------------------|
F|--------------------5------2--5------------------|
C|---0------2--3------5------2--5--5-3------2--3---|
G|---0------2--3------3------0--3--5-3------2--3---|
C|---0------2--3-------------------5-3--0-0-2--3---|

(bridge 1 - guitar 1)
D|---------------------------------------------------------------------|
A|---------------------------------------------------------------------|
F|---------------------------------------------------------------------|
C|---6-6-6-6-6-6-6-6-6-6-6-6-6-6-6-6-0-0-0-0-0-0-0-0-0-0-0-0-0-0-0-0---|
G|---6-6-6-6-6-6-6-6-6-6-6-6-6-6-6-6-0-0-0-0-0-0-0-0-0-0-0-0-0-0-0-0---|
C|---6-6-6-6-6-6-6-6-6-6-6-6-6-6-6-6-0-0-0-0-0-0-0-0-0-0-0-0-0-0-0-0---|

(bridge 2 - guitar 2)
D|---------------------------------------------------------------------|
A|-------9-----9---------9-----9---------9-----9---------9-----9-------|
F|-----8---8-------8---8---8-------8---8---8-------8---8---8-------8---|
C|---6-------6---6---6-------6---6---6-------6---6---6-------6---6-----|
G|---------------------------------------------------------------------|
C|---------------------------------------------------------------------|

(bridge 3)
D|------------------------------------------------------------------|
A|------------------------------------------------------------------|
F|------------------------------------------------------------------|
C|---6-6-6-5--0---6-6-6-5--0---6-6-6-5--6-9-9-0--6-9-9-0--6-9-9-0---|
G|---6-6-6-5--0---6-6-6-5--0---6-6-6-5--6-9-9-0--6-9-9-0--6-9-9-0---|
C|---6-6-6-5--0---6-6-6-5--0---6-6-6-5--6-9-9-0--6-9-9-0--6-9-9-0---|

(outro)
D|----------------------------|----------------------------|
A|----------------------------|----------------------------|
F|----------------------------|----------------------------|
C|----------------------------|----------------------------|
G|---6-6-6-6--6--6-6-6-6--6---|---6-6-6-6--6--6-6-6-6--6---|
C|---6-6-6-6--6--6-6-6-6--6---|---6-6-6-6--6--6-6-6-6--6---|

D|----------------------------|-------------------------|
A|----------------------------|-------------------------|
F|----------------------------|-------------------------|
C|----------------------------|-------------------------|
G|---6-6-6-6--6--6-6-6-6--6---|---6-6-6-6--6--6-6-6-6---|
C|---6-6-6-6--6--6-6-6-6--6---|---6-6-6-6--6--6-6-6-6---|

ORDER

main riff - 1x
chorus riff - 2x
main riff - 2x
chorus riff - 2x
main riff - 2x
chorus riff - 2x
bridge 1 - 4x
bridge 2 - 4x (played over bridge 1)
bridge 3 - 4x
outro - 1x

enjoy! \m/
Suggest correction
Give kudos to tab author, rate the tab!
1 2 3 4 5
comments
print report bad tab
guest
You may want to rate the tab now too:
select rating
Wanna post a correction for this tab? Suggest correction