Oops, an error
Loading. Please wait.

Home Of Once Brave bass

version 1
version 1

Whole song

Interactive

by Bathory
103 views 1 this week
no commentswrite comment
1 2 3 4 5
3 more votes to show rating
add to favorites
×
Save as Personal and add changes to this tab that will be seen only by you. Learn more ›
×
You can save this tab as Personal to edit and correct it or add notes. All changes will be seen only by you. Learn more »
launch autoscroll
font size
0
reset
guitar tuner
edit
Autoscroll
slow
fast
+/-
esc
set tempo
stop
                Bathory
         - Home Of Once Brave -
              Hammerheart
 
         tabbed by PelzR


Just a conversion from my guitar pro version to a text file.

Tuning: Drop D (D A D G)

BPM: 100


Riff Section:
-------------            

Intro (fades in)
 
     E E E E E E E E E   E E E E E E E E E
G| |-------------------|-------------------|
D|4|-------------------|-------------------|
A|4|-------------------|-------------------|
D| |-0-0-0-0-0-0-0-0-0-|-0-0-0-0-0-0-0-0-0-|
     |-3-| |-3-| |-3-|   |-3-| |-3-| |-3-|  

Verse

     E E E E E E E E E   E E E E E E E E E   E E E E E E E E E   E E E E E E E E E
G| |-------------------|-------------------|-------------------|-------------------|
D|4|-------------------|-------------------|-------------------|-------------------|
A|4|-------------------|-------------------|-------------------|-------------------|
D| |-0-0-0-0-0-0-0-0-0-|-0-0-0-0-0-0-0-0-0-|-0-0-0-0-0-0-0-0-0-|-0-0-0-0-0-0-0-0-0-|
     |-3-| |-3-| |-3-|   |-3-| |-3-| |-3-|   |-3-| |-3-| |-3-|   |-3-| |-3-| |-3-|

     E E E E E E E E E   E E E E E E E E E   E E E E E E E E E   E E E E E E E E E
G| |-------------------|-------------------|-------------------|-------------------| 
D|4|-------------------|-------------------|-------------------|-------------------|
A|4|-------------------|-------------------|-------------------|-------------------|
D| |-3-3-3-3-3-3-3-3-3-|-3-3-3-3-3-3-3-3-3-|-3-3-3-3-3-3-3-3-3-|-3-3-3-3-3-3-3-3-3-|
     |-3-| |-3-| |-3-|   |-3-| |-3-| |-3-|   |-3-| |-3-| |-3-|   |-3-| |-3-| |-3-|

    
Pre-Chorus

     Q  E E E E Q  E E E E
G| |-----------------------|
D|4|-----------------------|
A|4|-----------------------|
D| |-0--0-0-0-0-0--0-0-0-0-|
     |-3-||-3-| |-3-||-3-|

  
Chorus

     W   W   W   H  Q Q   H. Q   H. Q   W   H  Q Q   W   W   W   H  Q Q   H. Q   H. Q   H  Q Q   Q  E E E E E E E E E
G| |---|---|---|--------|------|------|---|--------|---|---|---|--------|------|------|--------|----------------------|
D|4|---|---|---|--------|------|------|---|--------|---|---|---|--------|------|------|--------|----------------------|
A|4|---|---|---|--------|------|------|---|--------|---|---|---|--------|------|------|--------|----------------------|
D| |-0-|-2-|-0-|-3--2-3-|-0--3-|-2--3-|-5-|-3--2-3-|-0-|-2-|-0-|-3--2-3-|-0--3-|-2--3-|-5--0-2-|-3--3-3-3-3-2-0-3-2-0-|
                                                                                                    |-3-| |-3-| |-3-|  

                                                                                    
Outro (the "For Whom The Bell Rolls" one...)

     H  Q  H     H  Q  H  Q  H                H  Q  H   W
G| |---------| |---------------|            |---------|---| this is the
D|4|---------|6|---------------|            |---------|---| changed last
A|4|---------|4|---------------|            |---------|---| bit of it
D| |-0--2--2-| |-0--2--2--3--3-|            |-0--2--2-|-0-|
        3  3        3  3  3  3                   3  3
 


Song Structure:
---------------
Intro        until the drums are coming
Verse        5x
Pre-Chorus   4x
Chorus       1x
Verse        4x
Pre-Chorus   4x
Chorus       1x
Verse        3x
Outro        8x then the 'last bit one'



Description:
------------
. -> palm mute |  (x) -> let ring |  | h -> hammer-on | p -> pull-of | |-3-| or 3 -> triplet | o -> repeat
               |                  |  |                |              |                       | o

W -> whole note | H -> half note | Q -> quarter note | E -> eighth note | S -> sixteenth | . -> dotted note | 4 or 6 -> time signature
                                                                                                            | 4    4
Suggest correction
Creating personal tab
Creating personal tab
You can edit any tab online and save it as your Personal.

You can edit, replace or remove any tab part or add personal notes – all changes will be seen only by you.

Personal tabs can be accessed anytime from any device, even offline.
Learn more »
Give kudos to tab author, rate the tab!
1 2 3 4 5
comments
print report bad tab
guest
You may want to rate the tab now too:
select rating
Wanna post a correction for this tab? Suggest correction