Oops, an error
Loading. Please wait.

The Stallion Tab

by Bathory
2,198 views 3 this week
3 commentsread comments
1 2 3 4 5
3 more votes to show rating
add to favorites
×
Save as Personal and add changes to this tab that will be seen only by you. Learn more ›
launch autoscroll
font size
0
reset
how to read this tab
guitar tuner
Autoscroll
slow
fast
+/-
esc
set tempo
stop
THE STALLION
BLOOD ON ICE
BATHORY

    ---------------------------------------------------------------------
THE STALLION

from Bathory's album Blood on ice

Transcribed by Francisco Rocha

Intro

E----------------------------------------------
B----------------------------------------------
G--2------2-------2------2------2--------------
D--2------2-------2------2------2--------------
A--0-0000-0--0000-0--000-0--000-0--------------
E----------------------------------------------

Repeat 8 times

E----------------------------------------------
B----------------------------------------------
G--2--------------2----------------------------
D--2-----------5--2----------------------------
A--0-----------5--0----------------------------
E--------------3-------------------------------

   let ring       let ring and slide pick

Fig.1

E------------------------------------------------------------------
B------------------------------------------------------------------
G--------10------5------7-----5---2--22------2--22-------4-5-2-----
D-----10-------5------7-----5-----2--22------2--22-------4-5-2-----
A---8--------3------5-----3-------0--00-0000-0--00--000--2-3-0-----
E------------------------------------------------------------------

  Play fig, 1 4 times and the last time play at the end

E---------------------------------------------
B---------------------------------------------
G--4-5-2-----2---2--2---2---2---2---2---------
D--4-5-2-----2---2--2---2---2---2---2---------
A--2-3-0---0-0-0-0--0-0-0-0-0-0-0-0-0---------
E---------------------------------------------

Fig. 2

Guitar 1

  Tendons and muscles of steel...

E--0-------------------------------------------
B--1-------------------------------------------
G--2-------------------------------------------
D--2-------------------------------------------
A--0-------------------------------------------
E----------------------------------------------

   Clean guitar

Fig. 1 is played between verses, I think there are other 2 guitars
played but I haven't figured them out.

For now is all that I got if someone could help me get the singing part
guitar I'll be very thankful.

Sorry for the errors, its my very first transcription.

For comments or critics contact me at:

hrocha@df1.telmex.net.mx
Suggest correction
Give kudos to tab author, rate the tab!
1 2 3 4 5
comments
print report bad tab
3 comments total.
0 reply
vikingman369 334 Mar 10, 2014 05:32 PM

The Stallion

standard tuning

E|----------------------------------------|
B|----------------------------------------|
G|----------------------------------------|
D|---2------2------2------2------2--------|8x
A|---0-0000-0-0000-0-0000-0-0000-0-0000---|
E|----------------------------------------|

E|--------------------|----------------------|
B|--------------------|----------------------|
G|---2--------2-------|---2--------2---###---|
D|---2------5-2-------|---2------5-2---###---|
A|---0------5-0-------|---0------5-0---###---|
E|----------3---------|----------3-----------|

E|-------------------------------------------------------|
B|-------------------------------------------------------|
G|---10------5-----7-----------2-2-2-2-2-2-2-2-2-2-2-2---|
D|------10-----5-----7---------2-2-2-2-2-2-2-2-2-2-2-2---|3x
A|---------8-----3-----5---2-3-0-0-0-0-0-0-0-0-0-0-0-0---|
E|-----------------------3-------------------------------|

E|-------------------------------------------------------------------------------|
B|-------------------------------------------------------------------------------|
G|---10------5-----7-----------2-2-2-2-2-2-2-2-2-2-2-2-2-2-2-2-2-2-2-2-2-2-2-2---|
D|------10-----5---7-----------2-2-2-2-2-2-2-2-2-2-2-2-2-2-2-2-2-2-2-2-2-2-2-2---|
A|---------8-----3-5-----------0-0-0-0-0-0-0-0-0-0-0-0-0-0-0-0-0-0-0-0-0-0-0-0---|
E|-------------------------1-3---------------------------------------------------|

(verse)
E|-----------------------------------------------------------------------------------------------------|
B|-----------------------------------------------------------------------------------------------------|
G|---2-2-2-2-2-2-2-2-2-2-2-2-2-2-2-2-2-2-2-2-2-2-2-2-5-5-5-5-5-5-7-7-7-7-7-7---------------------------|
D|---2-2-2-2-2-2-2-2-2-2-2-2-2-2-2-2-2-2-2-2-2-2-2-2-5-5-5-5-5-5-7-7-7-7-7-7-2-2-2-2-2-2-2-2-2-2-2-2---|
A|---0-0-0-0-0-0-0-0-0-0-0-0-0-0-0-0-0-0-0-0-0-0-0-0-3-3-3-3-3-3-5-5-5-5-5-5-2-2-2-2-2-2-2-2-2-2-2-2---|
E|---------------------------------------------------------------------------0-0-0-0-0-0-0-0-0-0-0-0---|

E|-----------------------------------------------------------------------------------------------------|
B|-----------------------------------------------------------------------------------------------------|
G|---2-2-2-2-2-2-2-2-2-2-2-2-2-2-2-2-2-2-2-2-2-2-2-2-5-5-5-5-5-5-7-7-7-7-7-7---------------------------|
D|---2-2-2-2-2-2-2-2-2-2-2-2-2-2-2-2-2-2-2-2-2-2-2-2-5-5-5-5-5-5-7-7-7-7-7-7-2-2-2-2-2-2-3-3-3-5-5-5---|
A|---0-0-0-0-0-0-0-0-0-0-0-0-0-0-0-0-0-0-0-0-0-0-0-0-3-3-3-3-3-3-5-5-5-5-5-5-2-2-2-2-2-2-3-3-3-5-5-5---|
E|---------------------------------------------------------------------------0-0-0-0-0-0-1-1-1-3-3-3---|

E|-----------------------------------------------------|
B|-----------------------------------------------------|
G|---2-2-2-2-2-2-2-2-2-2-2-2-2-2-2-2-2-2-2-2-2-2-2-2---|
D|---2-2-2-2-2-2-2-2-2-2-2-2-2-2-2-2-2-2-2-2-2-2-2-2---|
A|---0-0-0-0-0-0-0-0-0-0-0-0-0-0-0-0-0-0-0-0-0-0-0-0---|
E|-----------------------------------------------------|

E|-------------------------------------------------------|
B|-------------------------------------------------------|
G|---10------5-----7-----------2-2-2-2-2-2-2-2-2-2-2-2---|
D|------10-----5-----7---------2-2-2-2-2-2-2-2-2-2-2-2---|3x
A|---------8-----3-----5---2-3-0-0-0-0-0-0-0-0-0-0-0-0---|
E|-----------------------3-------------------------------|

E|-------------------------------------------------------------------------------|
B|-------------------------------------------------------------------------------|
G|---10------5-----7-----------2-2-2-2-2-2-2-2-2-2-2-2-2-2-2-2-2-2-2-2-2-2-2-2---|
D|------10-----5---7-----------2-2-2-2-2-2-2-2-2-2-2-2-2-2-2-2-2-2-2-2-2-2-2-2---|
A|---------8-----3-5-----------0-0-0-0-0-0-0-0-0-0-0-0-0-0-0-0-0-0-0-0-0-0-0-0---|
E|-------------------------1-3---------------------------------------------------|

(verse)
E|-----------------------------------------------------------------------------------------------------|
B|-----------------------------------------------------------------------------------------------------|
G|---2-2-2-2-2-2-2-2-2-2-2-2-2-2-2-2-2-2-2-2-2-2-2-2-5-5-5-5-5-5-7-7-7-7-7-7---------------------------|
D|---2-2-2-2-2-2-2-2-2-2-2-2-2-2-2-2-2-2-2-2-2-2-2-2-5-5-5-5-5-5-7-7-7-7-7-7-2-2-2-2-2-2-2-2-2-2-2-2---|
A|---0-0-0-0-0-0-0-0-0-0-0-0-0-0-0-0-0-0-0-0-0-0-0-0-3-3-3-3-3-3-5-5-5-5-5-5-2-2-2-2-2-2-2-2-2-2-2-2---|
E|---------------------------------------------------------------------------0-0-0-0-0-0-0-0-0-0-0-0---|

E|-----------------------------------------------------------------------------------------------------|
B|-----------------------------------------------------------------------------------------------------|
G|---2-2-2-2-2-2-2-2-2-2-2-2-2-2-2-2-2-2-2-2-2-2-2-2-5-5-5-5-5-5-7-7-7-7-7-7---------------------------|
D|---2-2-2-2-2-2-2-2-2-2-2-2-2-2-2-2-2-2-2-2-2-2-2-2-5-5-5-5-5-5-7-7-7-7-7-7-2-2-2-2-2-2-3-3-3-5-5-5---|
A|---0-0-0-0-0-0-0-0-0-0-0-0-0-0-0-0-0-0-0-0-0-0-0-0-3-3-3-3-3-3-5-5-5-5-5-

0 reply
vikingman369 334 Mar 10, 2014 05:33 PM

(part 2)

(verse)
E|-----------------------------------------------------------------------------------------------------|
B|-----------------------------------------------------------------------------------------------------|
G|---2-2-2-2-2-2-2-2-2-2-2-2-2-2-2-2-2-2-2-2-2-2-2-2-5-5-5-5-5-5-7-7-7-7-7-7---------------------------|
D|---2-2-2-2-2-2-2-2-2-2-2-2-2-2-2-2-2-2-2-2-2-2-2-2-5-5-5-5-5-5-7-7-7-7-7-7-2-2-2-2-2-2-2-2-2-2-2-2---|
A|---0-0-0-0-0-0-0-0-0-0-0-0-0-0-0-0-0-0-0-0-0-0-0-0-3-3-3-3-3-3-5-5-5-5-5-5-2-2-2-2-2-2-2-2-2-2-2-2---|
E|---------------------------------------------------------------------------0-0-0-0-0-0-0-0-0-0-0-0---|

E|-----------------------------------------------------------------------------------------------------|
B|-----------------------------------------------------------------------------------------------------|
G|---2-2-2-2-2-2-2-2-2-2-2-2-2-2-2-2-2-2-2-2-2-2-2-2-5-5-5-5-5-5-7-7-7-7-7-7---------------------------|
D|---2-2-2-2-2-2-2-2-2-2-2-2-2-2-2-2-2-2-2-2-2-2-2-2-5-5-5-5-5-5-7-7-7-7-7-7-2-2-2-2-2-2-3-3-3-5-5-5---|
A|---0-0-0-0-0-0-0-0-0-0-0-0-0-0-0-0-0-0-0-0-0-0-0-0-3-3-3-3-3-3-5-5-5-5-5-5-2-2-2-2-2-2-3-3-3-5-5-5---|
E|---------------------------------------------------------------------------0-0-0-0-0-0-1-1-1-3-3-3---|

E|-----------------------------------------------------|
B|-----------------------------------------------------|
G|---2-2-2-2-2-2-2-2-2-2-2-2-2-2-2-2-2-2-2-2-2-2-2-2---|
D|---2-2-2-2-2-2-2-2-2-2-2-2-2-2-2-2-2-2-2-2-2-2-2-2---|
A|---0-0-0-0-0-0-0-0-0-0-0-0-0-0-0-0-0-0-0-0-0-0-0-0---|
E|-----------------------------------------------------|

E|-------------------------------------------------------|
B|-------------------------------------------------------|
G|---10------5-----7-----------2-2-2-2-2-2-2-2-2-2-2-2---|
D|------10-----5-----7---------2-2-2-2-2-2-2-2-2-2-2-2---|3x
A|---------8-----3-----5---2-3-0-0-0-0-0-0-0-0-0-0-0-0---|
E|-----------------------3-------------------------------|

E|-------------------------------------------------------------------------------------|
B|-------------------------------------------------------------------------------------|
G|---10------5-----7---------###-----2-2-2-2-2-2-2-2-2-2-2-2-2-2-2-2-2-2-2-2-2-2-2-2---|
D|------10-----5---7---------###-----2-2-2-2-2-2-2-2-2-2-2-2-2-2-2-2-2-2-2-2-2-2-2-2---|
A|---------8-----3-5---------###-----0-0-0-0-0-0-0-0-0-0-0-0-0-0-0-0-0-0-0-0-0-0-0-0---|
E|-------------------------------1-3---------------------------------------------------|

E|-------------------------------------------------------|
B|-------------------------------------------------------|
G|---10------5-----7-----------2-2-2-2-2-2-2-2-2-2-2-2---|
D|------10-----5-----7---------2-2-2-2-2-2-2-2-2-2-2-2---|3x
A|---------8-----3-----5---2-3-0-0-0-0-0-0-0-0-0-0-0-0---|
E|-----------------------3-------------------------------|

E|---------------------------------------|
B|---------------------------------------|
G|---10------5-----7-----------------2---|
D|------10-----5---7-----------------2---|
A|---------8-----3-5-----------------0---|
E|-------------------------------1-3-----|

# - pick slide/scrape

thats about it

0 reply
vikingman369 334 Mar 10, 2014 05:34 PM

oh yes, and under the bridge/solo

(bridge)
E|-----------------------------------------------------------------------------------------------------|
B|-----------------------------------------------------------------------------------------------------|
G|---------------------------------------------------5-5-5-5-5-5-7-7-7-7-7-7-4-4-4-4-4-4-4-4-4-4-4-4---|
D|---2-2-2-2-2-2-2-2-2-2-2-2-2-2-2-2-2-2-2-2-2-2-2-2-5-5-5-5-5-5-7-7-7-7-7-7-4-4-4-4-4-4-4-4-4-4-4-4---|2x
A|---2-2-2-2-2-2-2-2-2-2-2-2-2-2-2-2-2-2-2-2-2-2-2-2-3-3-3-3-3-3-5-5-5-5-5-5-2-2-2-2-2-2-2-2-2-2-2-2---|
E|---0-0-0-0-0-0-0-0-0-0-0-0-0-0-0-0-0-0-0-0-0-0-0-0---------------------------------------------------|

(under solo)
E|------------------------------------------------------------------------|
B|------------------------------------------------------------------------|
G|---2-2-2-2-2-2-2-2-2-2-2-2-2-2-2-2-2-2-2-2-2-2-2-2----------------------|
D|---2-2-2-2-2-2-2-2-2-2-2-2-2-2-2-2-2-2-2-2-2-2-2-2-3--3--3--5--5--------|
A|---0-0-0-0-0-0-0-0-0-0-0-0-0-0-0-0-0-0-0-0-0-0-0-0-3--3--3--5--5--------|
E|---------------------------------------------------1--1--1--3--3--1-3---|

E|------------------------------------------------------------------------|
B|------------------------------------------------------------------------|
G|---2-2-2-2-2-2-2-2-2-2-2-2-2-2-2-2-2-2-2-2-2-2-2-2----------5--5--------|
D|---2-2-2-2-2-2-2-2-2-2-2-2-2-2-2-2-2-2-2-2-2-2-2-2-3--3--3--5--5--------|
A|---0-0-0-0-0-0-0-0-0-0-0-0-0-0-0-0-0-0-0-0-0-0-0-0-3--3--3--3--3--------|
E|---------------------------------------------------1--1--1--------1-3---|

E|------------------------------------------------------------------------|
B|------------------------------------------------------------------------|
G|---2-2-2-2-2-2-2-2-2-2-2-2-2-2-2-2-2-2-2-2-2-2-2-2----------------------|
D|---2-2-2-2-2-2-2-2-2-2-2-2-2-2-2-2-2-2-2-2-2-2-2-2-3--3--3--5--5--------|
A|---0-0-0-0-0-0-0-0-0-0-0-0-0-0-0-0-0-0-0-0-0-0-0-0-3--3--3--5--5--------|
E|---------------------------------------------------1--1--1--3--3--1-3---|

E|------------------------------------------------------------------------|
B|------------------------------------------------------------------------|
G|---2-2-2-2-2-2-2-2-2-2-2-2-2-2-2-2-2-2-2-2-2-2-2-2----------5--5--------|
D|---2-2-2-2-2-2-2-2-2-2-2-2-2-2-2-2-2-2-2-2-2-2-2-2-3--3--3--5--5--------|
A|---0-0-0-0-0-0-0-0-0-0-0-0-0-0-0-0-0-0-0-0-0-0-0-0-3--3--3--3--3--------|
E|---------------------------------------------------1--1--1--------1-3---|

E|-----------------------------------------------------|
B|-----------------------------------------------------|
G|---2-2-2-2-2-2-2-2-2-2-2-2-2-2-2-2-2-2-2-2-2-2-2-2---|
D|---2-2-2-2-2-2-2-2-2-2-2-2-2-2-2-2-2-2-2-2-2-2-2-2---|
A|---0-0-0-0-0-0-0-0-0-0-0-0-0-0-0-0-0-0-0-0-0-0-0-0---|
E|-----------------------------------------------------|

E|-------------------------------------------------------|
B|-------------------------------------------------------|
G|---10------5-----7-----------2-2-2-2-2-2-2-2-2-2-2-2---|
D|------10-----5-----7---------2-2-2-2-2-2-2-2-2-2-2-2---|3x
A|---------8-----3-----5---2-3-0-0-0-0-0-0-0-0-0-0-0-0---|
E|-----------------------3-------------------------------|

E|-------------------------------------------------------------------------------|
B|-------------------------------------------------------------------------------|
G|---10------5-----7-----------2-2-2-2-2-2-2-2-2-2-2-2-2-2-2-2-2-2-2-2-2-2-2-2---|
D|------10-----5---7-----------2-2-2-2-2-2-2-2-2-2-2-2-2-2-2-2-2-2-2-2-2-2-2-2---|
A|---------8-----3-5-----------0-0-0-0-0-0-0-0-0-0-0-0-0-0-0-0-0-0-0-0-0-0-0-0---|
E|-------------------------1-3---------------------------------------------------|

guest
You may want to rate the tab now too:
select rating
Wanna post a correction for this tab? Suggest correction