Oops, an error
Loading. Please wait.

Buddies And Pals Bass Tab

238 views 1 this week
no commentswrite comment
1 2 3 4 5
2 more votes to show rating
add to favorites
launch autoscroll
font size
0
reset
guitar tuner
Autoscroll
slow
fast
+/-
esc
set tempo
stop
Help us to improve Ultimate-Guitar.com Take our survey!
×
Intro
G--------------------------------------------|
D----------10-10-10-10-----------10-10-10-10-|
A-9-9-9-9---------------9-9-9-9--------------|
E--------------------------------------------|

G--------------------------------------------|
D----------10-10-10-10-----------10-(ring)---|
A-9-9-9-9---------------9-9-9-9--------------|
E--------------------------------------------|

Verse
G--------------------------|--------------------------|
D--------------------------|--------------------------|
A-8/9-9-8/9-9-8/9-9--12----|-8/9-9-8/9-9-8/9-9--12----|
E-----------------------12-|-----------------------12-|

G--------------------------|--------------------------|
D--------------------------|--------------------------|
A-8/9-9-8/9-9-8/9-9--12----|-8/9-9-8/9-9-8/9-9--12----|
E-----------------------12-|-----------------------12-|

Chorus
G-----------------------------|-----------------------------|
D-----------------------------|-----------------------------|
A-7-7-7-5-5-5-5-3/4-4-3/4-4-4-|-7-7-7-5-5-5-5-3/4-4-3/4-4-4-|
E-----------------------------|-----------------------------|

G-----------------------------|-----------------------------|
D-----------------------------|-----------------------------|
A-7-7-7-5-5-5-5-3/4-4-3/4-4-4-|-7-7-7-5-5-5-5-3/4-4-3/4-4-4-|
E-----------------------------|-----------------------------|


Verse
G--------------------------|--------------------------|
D--------------------------|--------------------------|
A-8/9-9-8/9-9-8/9-9--12----|-8/9-9-8/9-9-8/9-9--12----|
E-----------------------12-|-----------------------12-|

G--------------------------|--------------------------|
D--------------------------|--------------------------|
A-8/9-9-8/9-9-8/9-9--12----|-8/9-9-8/9-9-8/9-9--12----|
E-----------------------12-|-----------------------12-|

Chorus
G-----------------------------|-----------------------------|
D-----------------------------|-----------------------------|
A-7-7-7-5-5-5-5-3/4-4-3/4-4-4-|-7-7-7-5-5-5-5-3/4-4-3/4-4-4-|
E-----------------------------|-----------------------------|

G-----------------------------|-----------------------------|
D-----------------------------|-----------------------------|
A-7-7-7-5-5-5-5-3/4-4-3/4-4-4-|-7-7-7-5-5-5-5-3/4-4-3/4-4-4-|
E-----------------------------|-----------------------------|

Bridge
G--------------------------------------------|
D----------10-10-10-10-----------10-10-10-10-|
A-9-9-9-9---------------9-9-9-9--------------|
E--------------------------------------------|

G--------------------------------------------|
D----------10-10-10-10-----------10-(ring)---|
A-9-9-9-9---------------9-9-9-9--------------|
E--------------------------------------------|

Verse
G--------------------------|--------------------------|
D--------------------------|--------------------------|
A-8/9-9-8/9-9-8/9-9--12----|-8/9-9-8/9-9-8/9-9--12----|
E-----------------------12-|-----------------------12-|

G--------------------------|--------------------------|
D--------------------------|--------------------------|
A-8/9-9-8/9-9-8/9-9--12----|-8/9-9-8/9-9-8/9-9--12----|
E-----------------------12-|-----------------------12-|

Chorus
G-----------------------------|-----------------------------|
D-----------------------------|-----------------------------|
A-7-7-7-5-5-5-5-3/4-4-3/4-4-4-|-7-7-7-5-5-5-5-3/4-4-3/4-4-4-|
E-----------------------------|-----------------------------|

G-----------------------------|-----------------------------|
D-----------------------------|-----------------------------|
A-7-7-7-5-5-5-5-3/4-4-3/4-4-4-|-7-7-7-5-5-5-5-3/4-4-3/4-4-4-|
E-----------------------------|-----------------------------|

Final Verse
G--------------------------|--------------------------|
D--------------------------|--------------------------|
A-8/9-9-8/9-9-8/9-9--12----|-8/9-9-8/9-9-8/9-9--12----|
E-----------------------12-|-----------------------12-|

G--------------------------|--------------------------|
D--------------------------|--------------------------|
A-8/9-9-8/9-9-8/9-9--12----|-8/9-9-8/9-9-8/9-9--12----|
E-----------------------12-|--------------------------|

Suggest correction
Give kudos to tab author, rate the tab!
1 2 3 4 5
comments
print report bad tab
guest
You may want to rate the tab now too:
select rating
Wanna post a correction for this tab? Suggest correction