Oops, an error
Loading. Please wait.

Hells Around The Next Corrner Bass Tab

257 views 1 this week
no commentswrite comment
1 2 3 4 5
please rate
add to favorites
launch autoscroll
font size
0
reset
guitar tuner
Autoscroll
slow
fast
+/-
esc
set tempo
stop
Help us to improve Ultimate-Guitar.com Take our survey!
×
Main Riff
G-----------------|
D-----------------|
A-----------------|
E-7-7-7-7-5-5-6-6-|

Chorus
G---------------------------------------------------|
D---------------------------------------------------|
A-12-12-12-12-12-11---------------------------------|
E------------------12-12-12-12-12-12---8--8--8--8-8-|

G-------------------------------------------------------------------------|
D-------------------------------------------------------------------------|
A-12-12-12-12-12-11-------------------------------------------------------|
E------------------12-12-12-12-12-12--15-15-15-15-15-15-14-14-14-14-14-14-|


********there aint no point on showing the order, the chorus is only played in two 
spots. and the main riff is played almost "OVER 9000!"
Suggest correction
Give kudos to tab author, rate the tab!
1 2 3 4 5
comments
print report bad tab
guest
You may want to rate the tab now too:
select rating
Wanna post a correction for this tab? Suggest correction