Oops, an error
Loading. Please wait.

Im Gonna Make You Scream Bass Tab

321 views 1 this week
no commentswrite comment
1 2 3 4 5
please rate
add to favorites
launch autoscroll
font size
0
reset
guitar tuner
Autoscroll
slow
fast
+/-
esc
set tempo
stop
Help us to improve Ultimate-Guitar.com Take our survey!
×
Intro
G--------------------|
D--------------------|
A-7----7----7--------|
E--575--575--575-7-5-|

Verse
G--------------------|
D--------------------|
A-7----7----7--------|
E--575--575--575-7-5-|

Chorus 
G---------------|----------------|
D---------------|----------------|
A-----------7(7)|------------7(7)|
E-7-4-5-4-7-----|--7-4-5-4-7-----|

Solo
G--------------------|
D--------------------|
A-7----7----7--------|
E----------------7-5-|
Suggest correction
Give kudos to tab author, rate the tab!
1 2 3 4 5
comments
print report bad tab
guest
You may want to rate the tab now too:
select rating
Wanna post a correction for this tab? Suggest correction